PrimaNota.ru - самый крупный в мире бесплатный архив песенных текстов, аккордов, табулатур и нот


Carolines Spine - Hippie Boy - текст песни, таба, видео

Регистрация Запомнить меня
Войти через:  Facebook Google Twitter Vk Yandex Mail.ru

Carolines Spine - Hippie Boy - текст песни, таба, видео

Печатать
Просмотров: 164
Уроки эстрадного вокала в Санкт-Петербурге
Artist: Caroline's Spine
Song: Hippie Boy
Album: Monsoon
Tabbed by: Brian
Caroline's Spine is a pretty good band, they got like
2 CDs out, Monsoon being the first.  This song actually
requires 2 guitars, but i tabbed it for one, it
still sounds decent, please feel free to add
any corrections...so here it is...
Hippie Boy by Caroline's Spine
Standard Tuning
p=pulloff
/\=slide up and down

Intro: (Clean)
e|-------------------------------------------------
B|-------3p2----------3-2--------3p2----------3-2--
G|-----2-----2------2----------2-----2------2------
D|---2------------2----------2------------2--------
A|-0------------0----------0------------0----------
E|-------------------------------------------------
Verse:
Same as intro...
Verse Fill 1: (Clean)
e|---------3---3---3--3p2---7-
B|-------3---3---3-3------3-8-
G|-----2-----------2--------7-
D|---2------------------------
A|-0--------------------------
E|----------------------------
Then more Verse riff...
Verse Fill 2: (Clean)
e|-3-  strum and pick  e|-0-
B|-3-  this chord and  B|-3-
G|-2-  finish with     G|-2-
D|---  this chord...   D|---
A|---                  A|---
E|---                  E|---
Chorus: (Clean)
e|-3-  strum and pick 
B|-3-  this chord  
G|-2-     
D|---       
A|---                 
E|---                 
Bridge: (Distorted)
e|-------------------
B|-------------------
G|-------------5/7\5-
D|-------------3/5\3-
A|-5/7-7-7-77-5------
E|-3/5-5-5-55-3------
Then play intro riff..
Then Chorus riff played over
these chords: (distorted)
e|------------
B|------------
G|------------
D|------------
A|-7-----5----
E|-5-----3----
Then Intro riff.
Then Chorus riff.
Outro is same as Intro riff.
There ya go!  any questions, comments:
email @ fabian_brian@hotmail.com
     
Добавлено: 31.08.2013
Другие материалы по этой песне:
  • Аккорды и текст

Страница создана 29.02.2012
http://primanota.ru/carolines-spine/hippie-boy-chords.htm
Привет, Гость.
Предлагаем пройти революционный курс по гитаре.
Подарок от PrimaNota.Ru, забирай!