PrimaNota.ru - самый крупный в мире бесплатный архив песенных текстов, аккордов, табулатур и нот


Carolina Wallin Perez - Parlor - таба, видео

Регистрация Запомнить меня
Войти через:  Facebook Google Twitter Vk Yandex Mail.ru

Carolina Wallin Perez - Parlor - таба, видео

Печатать
Просмотров: 112
Уроки эстрадного вокала в Санкт-Петербурге
Авторы музыки: Joakim Berg
Авторы текста: Joakim Berg
-------------------------------------------------------------------------
PÄRLOR – Carolina Wallin Pérez
-------------------------------------------------------------------------
Tabbed by: Kengus

Official website: http://carolinawallinperez.com

Standard tuning
Capo on second fret!

INTRO
   Em
e|------------------------------------------------------|
B|---------0-------------------------0------------------|
G|-----0-----0----------0--------0-----0----------0-----|
D|---2--------------2-----2----2--------------2-----2---|
A|----------------2-------------------------2-----------|
E|-0-----0------0-----0------0-----0------0-----0-------|

VERSE I
   Em           Am     G   Bm7             Dsus2  Em
e|-----------------------------------------------------------------------|
B|---------0----1------0-----------3-----------3----------------0--------|
G|-----0-----0------2----------2-----2-------2--------------0-----0------|
D|---2------------2----------4---------4---0--------2-----2---------2----|
A|--------------0----------2-----2---------------------------------------|
E|-0-----0-------------3--------------------------0-----0-----0----------|
   Am      G         Dsus2       Am              Em              Am
e|---------------------------0-------------------------------------------|
B|-1-------------0-------3---------------1---------------0-------1-------|
G|-----2-------0-------2-------------2-----2---------0-----0---------2---|
D|---2-------0-------0-----0-------2---------2-----2---------2-----2-----|
A|-0-----------------------------0-----0-------------------------0-------|
E|---------3-------------------------------------0-----0-----------------|
   G         Bm7             Dsus2    Em                     Am
e|---------------------------------0-------------------------------------|
B|-------0---3-------3-----------3---------------------------------1-----|
G|-----0---------2-----2-------2------------------0-------0------2-------|
D|---0---------4---------4---0------------2-----2-----2/4------2---------|
A|-----------2-----2--------------------2--------------------0-----------|
E|-3----------------------------------0-------0-----0--------------------|
   G         Dsus2           Am
e|-------------------0-------------------------------------|
B|-------0-------3-----------------3---1---0h1-------------|
G|-----0-------2---------2-------2-------------2-------2---|
D|---0-------0-----0---0-------2-----------------2---2-----|
A|---------------------------0-------0---0---------0-------|
E|-3-------------------------------------------------------|

[chorus kommer senare]

INTRO
Em

VERSE I
Em                   Am     G   Bm7                  Dsus2   Em
Sagor för barnen som är som du,     om en tunnel vid ljusets slut
                      Am      G      Dsus2      Am
Jag är din vän och vi lär oss av varann, det är ett av skälen
Em                    Am       G    Bm7                Dsus2  Em
Ge dom ett finger och värm min hand,    i ett iskallt IKEA----land
                     Am      G      Dsus2    Am
Du är min vän och vi lär oss av varann, bara ett av skälen

CHORUS                                                    Dadd4* = x54030
(Bm7) C            Dadd4* Em     Bm7              C
  Så  snurrar min jord i----gen, radion spelar vår sång
                Dadd4*   Em              Dsus2  (Bm7)
Stockholm ligger öde och världen håller andan
C            Dadd4* Em         Bm7               C
Snurrar min jord i----gen, för allt vi drömde en gång
             D            Em              Dsus2
Allt som du gör blir till pärlor på min panna
                B7      Em
Vilken färg har själen älskling?

VERSE II
Em                     Am    G   Bm7                   Dsus2    Em
Ge oss en chans, vi är äldre nu,     vi ser ljuset vid tunnelns slut
                        Am   G      Dsus2      Am
Ge oss en chans, vi kan lära av varann, det är ett av skälen
Em                    Am    G   Bm7              Dsus2    Em
Sagor för barn som är vuxna nu, TV:n står på som bakgrundsljud
                      Am      G      Dsus2    Am
Jag är din vän och vi lär oss av varann, bara ett av skälen

CHORUS
(Bm7) C            Dadd4* Em     Bm7              C
  Så  snurrar min jord i----gen, radion spelar vår sång
                Dadd4*   Em              Dsus2  (Bm7)
Stockholm ligger öde och världen håller andan
C            Dadd4* Em         Bm7               C
Snurrar min jord i----gen, för allt vi drömde en gång
             D            Em              Dsus2
Allt som du gör blir till pärlor på min panna
                Bm7...
Vilken färg har själen?

INTERLUDE/SOLO
...C  D  Em  Am  Bm7
C  D  Em  Am

CHORUS
(Bm7) C            Dadd4* Em     Bm7              C
  Så  snurrar min jord i----gen, radion spelar vår sång
                Dadd4*   Em              Dsus2  (Bm7)
Stockholm ligger öde och världen håller andan
C            Dadd4* Em         Bm7               C
Snurrar min jord i----gen, för allt vi drömde en gång
             D            Em              Dsus2
Allt som du gör blir till pärlor på min panna
                B7      Em
Vilken färg har själen älskling?

OUTRO
Em

=========================================================================
Comment, rate, appreciate!
Добавлено: 16.05.2012
Вам также может быть интересно:
Другие материалы по этой песне:
  • Аккорды и текст

Страница создана 16.05.2012
http://primanota.ru/carolina-wallin-perez/parlor-chords.htm
Привет, Гость.
Предлагаем пройти революционный курс по гитаре.
Подарок от PrimaNota.Ru, забирай!