PrimaNota.ru - самый крупный в мире бесплатный архив песенных текстов, аккордов, табулатур и нот


Carole King - I can feel the earth - бас-таба, видео

Регистрация Запомнить меня
Войти через:  Facebook Google Twitter Vk Yandex Mail.ru

Carole King - I can feel the earth - бас-таба, видео

Печатать
Просмотров: 67


Carol_King/I_Can_Feel_The_Earth_Move_Under_My_Feet.btab

Basstab by Jan Bjorklund, Finland; 
jani_bjorklund@yahoo.se 
You are welcome to request for basstabs or standard notation 
Bienvenidos a pedirme transcripciones para el bajo 

TablEdited by Jan Bjorklund for Glenn
Tuning : E A D G 	Time Signature: 4/4

 tempo 118       |       |        |       |       |       |        
|--------------------------------|--------------------------------|
|----------------------two bars without bass----------------------|
|--------------------------------|--------------------------------|
|--------------------------------|--------------------------------|

 |       |       |       |        |       |       |       |        
|--------5---5-----------5---5---|--------5---5-----------5---5---|
|--------------------------------|--------------------------------|
|3---3-----------3---3-----------|3---3-----------3---3-----------|
|--------------------------------|--------------------------------|

 |       |       |       |        |       |       |       |        
|--------5---5-----------5---5---|--------5---5-----------5---5---|
|--------------------------------|--------------------------------|
|3---3-----------3---3-----------|3---3-----------3---3-----------|
|--------------------------------|--------------------------------|

 |       |       |       |        |       |       |       |        
|--------5---5-----------5---5---|--------5---5-------------------|
|--------------------------------|------------------------1-1-1---|
|3---3-----------3---3-----------|3---3-----------3---3-----------|
|--------------------------------|--------------------------------|

 |       |       |       |        |       |       |       |        
|--------------------------------|----------------2-2-0-------0---|
|3---3-------------------1---3---|----3---3---------------3-------|
|--------0---0-1---1-3-----------|--------------------------------|
|--------------------------------|--------------------------------|

 |       |       |       |        |       |       |       |        
|--------5---5-----------5---5---|--------5---5-------3-------2---|
|--------------------------------|--------------------------------|
|3---3-----------3---3-----------|3---3-----------3---------------|
|--------------------------------|--------------------------------|

 |       |       |       |        |       |       |       |        
|--------------------------------|--------------------------------|
|1---1---1-----------------------|----------------------------1---|
|--------------------------------|--------------------1---3-------|
|--------------------1---3---4---|----4---4-----------------------|

 |       |       |       |        |       |       |       |        
|--------------------0h1-----3---|------------3---3---3---3---3---|
|3-----------------------3-------|--------------------------------|
|--------------------------------|--------------------------------|
|--------------------------------|--------------------------------|

 |       |       |       |        |       |       |       |        
|--------------------------------|--------------------------------|
|1-------------------------------|--------------------------------|
|--------------------------------|------------------------3-------|
|--------------------1---3---4---|----4-----------4---4-----------|

 |       |       |       |        |       |       |       |        
|--------------------------------|----------------0---------------|
|3-------------------------------|--------------------------------|
|--------------------3-------1---|--------------------------------|
|------------------------1-------|--------------------------------|

 |       |       |       |        |       |       |       |        
|--------5---5-----------5---5---|--------5---5-----------5---5---|
|--------------------------------|--------------------------------|
|3---3-----------3---3-----------|3---3-----------3---3-----------|
|--------------------------------|--------------------------------|

 |       |       |       |        |       |       |       |        
|--------5---5-----------5---5---|--------5---5-------------------|
|--------------------------------|------------------------1-1-1---|
|3---3-----------3---3-----------|3---3-----------3-3-3-----------|
|--------------------------------|--------------------------------|


Created with TablEdit http://www.tabledit.com/


Добавлено: 28.08.2013
Другие материалы по этой песне:
  • Аккорды и текст

Страница создана 28.08.2013
http://primanota.ru/carole-king/i-can-feel-the-earth-chords.htm
Привет, Гость.
Предлагаем пройти революционный курс по гитаре.
Подарок от PrimaNota.Ru, забирай!