PrimaNota.ru - самый крупный в мире бесплатный архив песенных текстов, аккордов, табулатур и нот


Carole King - Corazón - текст песни, бас-таба, видео

Регистрация Запомнить меня
Войти через:  Facebook Google Twitter Vk Yandex Mail.ru

Carole King - Corazón - текст песни, бас-таба, видео

Печатать
Просмотров: 56
Новый альбом группы 'Черный Кузнец' по культовому сериалу 'Сверхъестественное'!
  Rest for 4 bars

G|----------------|----------------|----------------|----------------|
D|----------------|----------------|----------------|----------------|
A|----------------|----------------|----------------|--------------0-|
E|----------------|----------------|----------------|--------0---3---|

G|----------------|----------------|----------------|----------------|
D|----------------|----------------|----------------|----------------|
A|----------------|--------1-0-----|----------------|--------------0-|
E|----------------|------------3-0-|----------------|--------0---3---|
                                                             
                                                             Corazon
G|----------------|----------------|----------------|----------------|
D|----------------|----------------|----------------|----------------|
A|----------------|--------1-0-----|----------------|--------------0-|
E|----------------|------------3-0-|----------------|--------0---3---|

G|----------------|----------------|----------------|----------------|
D|----------------|----------------|----------------|----------------|
A|----------------|--------1-0-----|----------------|--------------0-|
E|----------------|------------3-0-|----------------|--------0---3---|

G|----------------|----------------|----------------|----------------|
D|----------------|----------------|----------------|----------------|
A|----------------|--------1-0-----|----------------|--------------0-|
E|----------------|------------3-0-|----------------|--------0---3---|

G|----------------|----------------|----------------|----------------|
D|----------------|----------------|----------------|----------------|
A|----------------|--------1-0-----|----------------|--------------0-|
E|----------------|------------3-0-|----------------|--------0---3---|

G|----------------|----------------|----------------|----------------|
D|----------------|----------------|----------------|----------------|
A|----------------|--------1-0-----|----------------|--------------0-|
E|----------------|------------3-0-|----------------|--------0---3---|

G|----------------|----------------|----------------|----------------|
D|----------------|----------------|----------------|----------------|
A|----------------|--------1-0-----|----------------|--------------0-|
E|----------------|------------3-0-|----------------|--------0---3---|

G|----------------|----------------|----------------|----------------|
D|----------------|----------------|----------------|----------------|
A|----------------|--------1-0-----|----------------|--------------0-|
E|----------------|------------3-0-|----------------|--------0---3---|

G|----------------|----------------|----------------|----------------|
D|----------------|----------------|----------------|----------------|
A|----------------|--------1-0-----|----------------|----------------|
E|----------------|------------3-0-|----------------|--------3-------|

G|----------------|----------------|----------------|----------------|
D|----------------|----------------|----------------|----------------|
A|--------0-------|----------------|----------------|--------0-------|
E|3---------------|----------------|--------0---0---|0---3-----------|

G|----------------|----------------|----------------|----------------|
D|----------------|----------------|----------------|----------------|
A|----------------|--------0-------|----------------|--------0-------|
E|--------0---0---|0---3-----------|--------0---0---|0---3-----------|

G|----------------|----------------|----------------|----------------|
D|----------------|----------------|----------------|----------------|
A|----------------|--------0-------|----------------|--------0-------|
E|--------0---0---|0---3-----------|--------0---0---|0---3-----------|

G|----------------|----------------|----------------|----------------|
D|----------------|----------------|----------------|----------------|
A|----------------|--------0-------|----------------|--------0-------|
E|--------0---0---|0---3-----------|--------0---0---|0---3-----------|

                                            [Break]
G|----------------|----------------|----------------|----------------|
D|----------------|----------------|--------0---0---|0-------0-------|
A|----------------|--------0-------|----------------|----3-----------|
E|--------0---0---|0---3-----------|----------------|----------------|

G|----------------|----------------|----------------|----------------|
D|--------0---0---|0-------0-------|--------0---0---|0-------0-------|
A|----------------|----3-----------|----------------|----3-----------|
E|----------------|----------------|----------------|----------------|

G|----------------|----------------|----------------|----------------|
D|--------0---0---|0-------0-------|--------0---0---|0-------0-------|
A|----------------|----3-----------|----------------|----3-----------|
E|----------------|----------------|----------------|----------------|

G|----------------|----------------|----------------|----------------|
D|--------0---0---|0-------0-------|--------0---0---|0-------0-------|
A|----------------|----3-----------|----------------|----3-----------|
E|----------------|----------------|----------------|----------------|

G|----------------|----------------|----------------|----------------|
D|----------------|----------------|----------------|----------------|
A|----------------|----0---2---2---|0---2-----------|--------0-------|
E|--------2---2---|2---------------|--------0---0---|0---3-----------|

G|----------------|----------------|----------------|----------------|
D|----------------|----------------|----------------|----------------|
A|----------------|--------0-------|----------------|--------0-------|
E|--------0---0---|0---3-----------|--------0---0---|0---3-----------|

G|----------------|----------------|----------------|----0-----------|
D|----------------|----------------|----------------|--------0-------|
A|----------------|--------0-------|--------2---2---|2---------------|
E|--------0---0---|0---3-----------|----------------|----------------|

G|----------------|----------------|----------------|----------------|
D|----------------|----------------|----------------|----------------|
A|0---2-----------|----------------|----------------|----------------|
E|--------0-------|----------------|----------------|----------------|

G|----------------|
D|----------------|
A|--------------0-|
E|--------0---3---|

G|----------------|----------------|----------------|----------------|
D|----------------|----------------|----------------|----------------|
A|----------------|--------1-0-----|----------------|--------------0-|
E|----------------|------------3-0-|----------------|--------0---3---|

G|----------------|----------------|----------------|----------------|
D|----------------|----------------|----------------|----------------|
A|----------------|--------1-0-----|----------------|--------------0-|
E|----------------|------------3-0-|----------------|--------0---3---|

G|----------------|----------------|----------------|----------------|
D|----------------|----------------|----------------|----------------|
A|----------------|--------1-0-----|----------------|--------------0-|
E|----------------|------------3-0-|----------------|--------0---3---|

G|----------------|----------------|----------------|----------------|
D|----------------|----------------|----------------|----------------|
A|----------------|--------1-0-----|----------------|----------------|
E|----------------|------------3-0-|----------------|--------3-------|

G|----------------|----------------|----------------|----------------|
D|----------------|----------------|----------------|----------------|
A|--------0-------|----------------|----------------|---------0------|
E|3---------------|----------------|--------0---0---|0---3-----------|

G|----------------|----------------|----------------|----------------|
D|----------------|----------------|----------------|----------------|
A|----------------|--------0-------|----------------|--------0-------|
E|--------0---0---|0---3-----------|--------0---0---|0---3-----------|

G|----------------|----------------|----------------|----------------|
D|----------------|----------------|----------------|----------------|
A|----------------|--------0-------|----------------|--------0-------|
E|--------0---0---|0---3-----------|--------0---0---|0---3-----------|

G|----------------|----------------|----------------|----------------|
D|----------------|----------------|----------------|----------------|
A|----------------|--------0-------|----------------|--------0-------|
E|--------0---0---|0---3-----------|--------0---0---|0---3-----------|

G|----------------|----------------|----------------|----------------|
D|----------------|----------------|----------0-----|----------0-----|
A|----------------|--------0-------|------------2-0-|--2-----0-------|
E|--------0---0---|0---3-----------|--------0-------|----3---------0-|

G|----------------|----------------|
D|----------------|----------------|
A|--0---2---0-----|------0---------|
E|--------3-----0-|--3-------------|

At the beginning, when you play B flat A G E, the E is an 1/8 note.
When you play E G A there, you can let the the A ring.
Добавлено: 20.03.2018
Другие материалы по этой песне:
  • Аккорды и текст

Страница создана 22.03.2012
http://primanota.ru/carole-king/corazon-chords.htm
Привет, Гость.
Предлагаем пройти революционный курс по гитаре.
Подарок от PrimaNota.Ru, забирай!