PrimaNota.ru - самый крупный в мире бесплатный архив песенных текстов, аккордов, табулатур и нот


Carole King - Chains - текст песни, бас-таба, видео

Регистрация Запомнить меня
Войти через:  Facebook Google Twitter Vk Yandex Mail.ru

Carole King - Chains - текст песни, бас-таба, видео

Печатать
Просмотров: 66
Новый альбом группы 'Черный Кузнец' по культовому сериалу 'Сверхъестественное'!
Авторы музыки: Carole King
Авторы текста: Gerry Goffin
  Rest for 12 bars

  [Chorus]
G|------------2---|------------2---|------------2---|----2-----------|
D|0---0---4-------|0---0---4-------|0---0---4-------|0-------4---0---|
A|----------------|----------------|----------------|----------------|
E|----------------|----------------|----------------|----------------|

G|----------------|----------------|------------2---|----------------|
D|------------0---|----0-----------|0---0---4-------|0-----------0---|
A|--------2-------|--------2-------|----------------|----2---0-------|
E|0---3-----------|3-----------3---|----------------|----------------|

G|----------------|----------------|----------------|----------------|
D|----------------|----------------|0-----------0---|----------------|
A|0---------------|----------------|----2---0-------|0-----------0---|
E|----------------|3---------------|----------------|----------------|

  [Verse]
G|0---------------|0-----------0---|------------2---|----------------|
D|--------0-------|----0-----------|0---0---4-------|0-----------0---|
A|----------------|--------2-------|----------------|----2---0-------|
E|----------------|----------------|----------------|----------------|

G|0---------------|0-----------0---|----------------|----------------|
D|--------0-------|----0-----------|0---0-------2---|----------------|
A|----------------|--------2-------|--------4-------|0---0---2---4---|
E|----------------|----------------|----------------|----------------|

  [Chorus]
G|------------2---|------------2---|------------2---|----2-----------|
D|0---0---4-------|0---0---4-------|0---0---4-------|0-------4---0---|
A|----------------|----------------|----------------|----------------|
E|----------------|----------------|----------------|----------------|

G|----------------|----------------|------------2---|----------------|
D|------------0---|----0-----------|0---0---4-------|0-----------0---|
A|--------2-------|--------2-------|----------------|----2---0-------|
E|0---3-----------|3-----------3---|----------------|----------------|

G|----------------|----------------|----------------|----------------|
D|----------------|----------------|0-----------0---|----------------|
A|0---------------|----------------|----2---0-------|0---0---2---4---|
E|----------------|3---------------|----------------|----------------|

  [Break]
G|----------------|----------------|----------------|0---------------|
D|0---------------|----------------|--------0---2---|----4---0---2---|
A|----2---0---2---|2---0---3---4---|3---4-----------|----------------|
E|----------------|----------------|----------------|----------------|

G|0---2---0-------|----------------|------------2---|----------------|
D|------------2---|0-----------0---|0---0---4-------|0---------------|
A|----------------|----2---0-------|----------------|----2---0---2---|
E|----------------|----------------|----------------|----------------|

G|----------------|------------2---|----------------|----------------|
D|----------------|0---0---4-------|0---0-----------|----------------|
A|0-------0---2---|----------------|--------2---3---|0---0---2---2---|
E|----3-----------|----------------|----------------|----------------|

  [Verse]
G|0---------------|0-----------0---|------------2---|----------------|
D|--------0-------|----0-----------|0---0---4-------|0-----------0---|
A|----------------|--------2-------|----------------|----2---0-------|
E|----------------|----------------|----------------|----------------|

G|0---------------|0-----------0---|----------------|----------------|
D|--------0-------|----0-----------|0---0-------2---|----------------|
A|----------------|--------2-------|--------4-------|0---0---2---4---|
E|----------------|----------------|----------------|----------------|

  [Chorus]
G|------------2---|------------2---|------------2---|----2-----------|
D|0---0---4-------|0---0---4-------|0---0---4-------|0-------4---0---|
A|----------------|----------------|----------------|----------------|
E|----------------|----------------|----------------|----------------|

G|----------------|----------------|------------2---|----------------|
D|------------0---|----0-----------|0---0---4-------|0-----------0---|
A|--------2-------|--------2-------|----------------|----2---0-------|
E|0---3-----------|3-----------3---|----------------|----------------|

G|----------------|----------------|----------------|----------------|
D|----------------|----------------|0-----------0---|----------------|
A|0---------------|----------------|----2---0-------|0---------------|
E|----------------|3---------------|----------------|----3---2---0---|

  [Outro]
G|------------2---|------------2---|------------2---|----------------|
D|0---0---4-------|0---0---4-------|0---0---4-------|0---0---4-------|
A|----------------|----------------|----------------|------------0---|
E|----------------|----------------|----------------|----------------|

G|----------------|----------------|------------2---|----------------|
D|------------0---|----0-----------|0---0---4-------|0-----------0---|
A|--------2-------|--------2-------|----------------|----2---0-------|
E|0---3-----------|3-----------3---|----------------|----------------|

G|----------------|----------------|----------------|----------------|
D|----------------|0-------0---2---|0-------0---2---|0-------0-------|
A|2-------2---4---|----------------|----------------|------------4---|
E|----------------|----------------|----------------|----------------|

G|----------------|----------------|----------------|----------------|
D|----------------|----------------|0-------0---2---|0-------0-------|
A|2-------2---0---|------------2---|----------------|------------4---|
E|----------------|3-------3-------|----------------|----------------|

G|----------------|----------------|----------------|----------------|
D|------------2---|----------------|----------------|0-------0---2---|
A|2-------2-------|2-------2---0---|------------2---|----------------|
E|----------------|----------------|3-------3-------|----------------|

G|----------------|----------------|----------------|----------------|
D|0-------0---2---|0-------0-------|----------------|0-------0-------|
A|----------------|------------2---|------------4---|----4-------4---|
E|----------------|----------------|3---------------|----------------|

G|----------------|----------------|
D|0-------0-------|----------------|
A|----4-----------|----------------|
E|----------------|----------------|

Добавлено: 20.03.2018
Другие материалы по этой песне:
  • Аккорды и текст

Страница создана 14.07.2012
http://primanota.ru/carole-king/chains-chords.htm
Привет, Гость.
Предлагаем пройти революционный курс по гитаре.
Подарок от PrimaNota.Ru, забирай!