PrimaNota.ru - самый крупный в мире бесплатный архив песенных текстов, аккордов, табулатур и нот


Carole King - Brother Brother - текст песни, бас-таба, видео

Регистрация Запомнить меня
Войти через:  Facebook Google Twitter Vk Yandex Mail.ru

Carole King - Brother Brother - текст песни, бас-таба, видео

Печатать
Просмотров: 46
Новый альбом группы 'Черный Кузнец' по культовому сериалу 'Сверхъестественное'!
Авторы музыки: Carole King
Авторы текста: Carole King
Tabbed by: 6METAL6BASSIST6
E-mail: petergriffinav@gmail.com

Tuning: EADG

G|----------------------------------------------------------------|
D|----------------------------------------------------------------| x2
A|1-----1-----1-------------------1-----1-----1-------------------|
E|----------------------------------------------------------------|

0:12

G|----------------------------------------------------------------|
D|----------------------------------------------------------------|
A|6-----6-----6-------------------1-----1-----1-------------------|
E|----------------------------------------------------------------|

G|----------------------------------------------------------------|
D|----------------------------------------------------------------|
A|1-----1-----1-------------------6-----6-----6-------------------|
E|----------------------------------------------------------------|

G|----------------------------------------------------------------|
D|----------------------------------------------------------------|
A|6-----6-----6-------------------1-----1-----1-------------------|
E|----------------------------------------------------------------|

G|------------------------------------------------3---------------|
D|6---------------5---------------3-------------------------------|
A|----------------------------------------------------------------|
E|----------------------------------------------------------------|

0:35

G|------5-5-------------5-5-------------3-3-------------3-3-------|
D|----------------------------------------------------------------|
A|3-------------3-3---------------1-------------1-1---------------|
E|----------------------------------------------------------------|

G|----------------------------------------------------------------|
D|------6-6-------------5-5-------------3-3-------------3-3-------|
A|----------------------------------------------------------------|
E|4-----------4---3-----------3---1-------------1-1---------------|

G|------3-3-------------3-3-------------5-5-------------5-5-------|
D|----------------------------------------------------------------|
A|1-------------1-1---------------3-------------3-3---------------|
E|----------------------------------------------------------------|

G|------5-5-------------5-5-------------8-8-------------8-8-------|
D|3-------------3-5-------------5-6-------------6-8---------------|
A|----------------------------------------------------------------|
E|----------------------------------------------------------------|

0:57

G|----------------------------------------------------------------|
D|----------------------------------------------------------------|
A|6-----6-----6-------------------1-----1-----1-------------------|
E|----------------------------------------------------------------|

G|----------------------------------------------------------------|
D|----------------------------------------------------------------|
A|1-----1-----1-------------------6-----6-----6-------------------|
E|----------------------------------------------------------------|

G|----------------------------------------------------------------|
D|----------------------------------------------------------------|
A|6-----6-----6-------------------1-----1-----1-------------------|
E|----------------------------------------------------------------|

G|------------------------------------------------3---------------|
D|6---------------5---------------3-------------------------------|
A|----------------------------------------------------------------|
E|----------------------------------------------------------------|

1:19

G|------------5---------------5-----------------------------------|
D|--------------------------------------------3---------------3---|
A|3-----3---------3-----3-----------------------------------------|
E|--------------------------------1-----1---------1-----1---------|

G|------------3---------------3---------------8---------------8---|
D|----------------------------------------------------------------|
A|1---------------1-----1---------6-----6---------6-----6---------|
E|----------------------------------------------------------------|

G|----------------------------------------------------------------|
D|------------6---------------6---------------5---------------5---|
A|----------------------------------------------------------------|
E|4-----4---------4-----4---------3-----3---------3-----3---------|

G|----------------------------------------------------------------|
D|------------3---------------3-----------------------------------|
A|--------------------------------1-------------------------------|
E|1-----1---------1-----1-----------------------------------------|

1:42

G|------5-5-------------5-5-------------3-3-------------3-3-------|
D|----------------------------------------------------------------|
A|3-----------3---3-----------3---1-----------1---1-----------1---|
E|----------------------------------------------------------------|

G|----------------------------------------------------------------|
D|------6-6-------------5-5-------------3-3-------------3-3-------|
A|----------------------------------------------------------------|
E|4-----------4---3-----------3---1-----------1---1-----------1---|

G|------3-3-------------3-3-------------5-5-------------5-5-------|
D|----------------------------------------------------------------|
A|1-----------1---1-----------1---3-----------3---3-----------3---|
E|----------------------------------------------------------------|

G|----------------------------------------------------------------|
D|------3-3-------------5-5-------------6-6-------------8-8-------|
A|----------------------------------------------------------------|
E|1-----------1---3-----------3---4-----------4---6-----------6---|

2:05

G|----------------------------------------------------------------|
D|----------------------------------------------------------------|
A|6-----6-----6-------------------1-----1-----1-------------------|
E|----------------------------------------------------------------|

G|----------------------------------------------------------------|
D|----------------------------------------------------------------|
A|1-----1-----1-------------------6-----6-----6-------------------|
E|----------------------------------------------------------------|

G|----------------------------------------------------------------|.
D|----------------------------------------------------------------|.
A|6-----6-----6-------------------1-----1-----1-------------------|.
E|----------------------------------------------------------------|.
                                                                   . x4 to fadeout.
G|------------------------------------------------3---------------|.
D|6---------------5---------------3-------------------------------|.
A|----------------------------------------------------------------|.
E|----------------------------------------------------------------|.
Добавлено: 20.03.2018
Другие материалы по этой песне:
  • Аккорды и текст

Страница создана 20.04.2012
http://primanota.ru/carole-king/brother-brother-chords.htm
Привет, Гость.
Предлагаем пройти революционный курс по гитаре.
Подарок от PrimaNota.Ru, забирай!