PrimaNota.ru - самый крупный в мире бесплатный архив песенных текстов, аккордов, табулатур и нот


Carol Ann - Dig Out Your Scars - таба, видео

Регистрация Запомнить меня
Войти через:  Facebook Google Twitter Vk Yandex Mail.ru

Carol Ann - Dig Out Your Scars - таба, видео

Печатать
Просмотров: 115
Уроки эстрадного вокала в Санкт-Петербурге
Carol ann
Dig out your scars
Akeldama

A really great song from this band.


This is all 100% ear from my point of view.

(0:04-0:37) Plays the 1st one once, then the 2nd one and it repeats.
|---------------------------------------------------|
|---------------------------------------------------|
|---------------------------------------------------|
|---------------------------------------------------|
|---------8----7---10---7h8--88888---33333----55555-|
|0-00-0-0---0----0----0------88888---33333----55555-|
   PM




|-------------------------------------------------------|
|-------------------------------------------------------|
|-------------------------------------------------------|
|-------------------------------------------------------|
|---------8----7---10---7h8--88888---1010101010---77777-|
|0-00-0-0---0----0----0------88888---1010101010---77777-|
   PM


(0:38-1:11) This breakdown is brutallll.
|-----------------------------------------------------|
|-----------------------------------------------------|
|-----------------------------------------------------|
|0-0-0-0-0000-0-0-0-0-0000-0-0-0-0-0000--10-----12----|
|0-0-0-0-0000-0-0-0-0-0000-0-0-0-0-0000---------------|
|0-0-0-0-0000-0-0-0-0-0000-0-0-0-0-0000-8---8-/10--10-|
 PM PM    PM  PM PM    PM  PM PM    PM


(1:12-1:36)
|---------------------------------|
|---------------------------------|
|----------------------------5--3-|
|----------------------------5--3-|
|--8-7h87---8-7h87---8-7h87--3--1-|
|0--------8--------5--------------|


Ring out...then
(1:43-2:31) It's all one sequence, just keep repeating it played in clean.
|--------------------------------------------------------------------------|
|--------------------------------------------------------------------------|
|------22-------22--22----------21-------21--21----------24-------24--24---|
|---19-------19--------------19-------19--------------19-------19----------|
|20-------20----------20--20-------20----------20--20-------20-----------20|
|--------------------------------------------------------------------------|

|------------------------|
|------------------------|
|------22-------22--22---|
|---19-------19----------|
|20-------20----------20-|
|------------------------|



(2:32-2:49)
|-------------------------------------------------|
|-------------------------------------------------|
|-------------------------------------------------|
|-------------------------------------------------|
|-------8-7-5-------10-8-7-------8-7-5-------3-5-7|
|00-00--------00-00--------00-00-------00-00------|
 PM PM        PM PM        PM PM       PM PM


(2:50-2:59)
|-------------------------------------------------|
|-------------------------------------------------|
|-------------------------------------------------|
|-------------------------------------------------|
|0---8-7-5-0-----10-8-7-0-----8-7-5-0-----3-5-7---|
|0---------0------------0-----------0-------------|


(3:00-3:03)
|---------|
|---------|
|---------|
|8--10--7-|
|8--10--7-|
|8--10--7-|



(3:04-3:16)
|--------------------------------------------------------------------------|
|--------------------------------------------------------------------------|
|--------------------------------------------------------------------------|
|0--------------8-10-7--0-----------------8-10-7--0------------------8-10-7|
|0-8-7-10-8-7-5-8-10-7--0-8-7-12-10-12-13-8-10-7--0-8-7-12-10-12-13--8-10-7|
|0--------------8-10-7--0-----------------8-10-7--0------------------8-10-7|

(3:17-3:44)
|-----------------------------------------------------|
|-----------------------------------------------------|
|-----------------------------------------------------|
|0-0-0-0-0000-0-0-0-0-0000-0-0-0-0-0000--10-----12----|
|0-0-0-0-0000-0-0-0-0-0000-0-0-0-0-0000---------------|
|0-0-0-0-0000-0-0-0-0-0000-0-0-0-0-0000-8---8-/10--10-|
 PM PM    PM  PM PM    PM  PM PM    PM



(3:45-end)      "Scars! Scars! Scars! Scars!"
|------------------------------------------|
|------------------------------------------|
|------------------------------------------|
|0-0-0-0---0-0-0-0---0-0-0-0---0-0-0-0--0-0|
|0-0-0-0---0-0-0-0---0-0-0-0---0-0-0-0--0-0|
|0-0-0-0---0-0-0-0---0-0-0-0---0-0-0-0--0-0|


There it is a great brutal song.
Добавлено: 27.07.2013
Другие материалы по этой песне:
  • Аккорды и текст

Страница создана 27.07.2013
http://primanota.ru/carol-ann/dig-out-your-scars-chords.htm
Привет, Гость.
Предлагаем пройти революционный курс по гитаре.
Подарок от PrimaNota.Ru, забирай!