PrimaNota.ru - самый крупный в мире бесплатный архив песенных текстов, аккордов, табулатур и нот


Carnivore - Thermo Nuclear Warrior - текст песни, таба, видео

Регистрация Запомнить меня
Войти через:  Facebook Google Twitter Vk Yandex Mail.ru

Carnivore - Thermo Nuclear Warrior - текст песни, таба, видео

Печатать
Просмотров: 144
Tune to Db


|-------------------------------------------------|
|-------------------------------------------------|
|-------------------------------------------------|
|-----------------------------5-4-5-4--2----------|
|--5/2/7/2--/4-5/2/7/2--/4-5--------------5/2/7/2-|
|-------------------------------------------------|


|-------------------------------|
|-------------------------------|
|-------------------------------| 
|-----2--------------------5/7--|
|-----2----5----7----5-----3/5--|
|--00---00-3-00-5-00-3-00-------|
   ..   ..   ..   ..   ..


|----------------------------------------------------------------------|
|----------------------------------------------------------------------|
|-------5------------------7-6--2---2----------------------------------|
|-------5------------------5-4--0---2-2-5------------------------------|
|--7----5----7--7/9/11--------------0-0-3-5--7-----------------5p3-----|
|--5---------5--5/7/9---------------------3--55555555555555555---------|
                                              ................


|-----------------------------------------------------------------
|-----------------------------------------------------------------
|-------5------------------7-6--2---2-----------------------------
|-------5------------------5-4--0---2-2-5-------------------------
|--7----5----7--7/9/11--------------0-0-3-5--7--------------------
|--5---------5--5/7/9---------------------3--55555555555555555----
                                              ................

 -------------------|
 -------------------|
 ---5-7-------------|
 ------5-7----5-----|
 ---------5-7-------|

|-------------------------------------------------|
|-------------------------------------------------| 
|--------------2-----5----0----2---5----0h2-------|
|------7-------2-2---5----0----2---5----0h2-------|
|3-----555555--0-0-----00---00---00---0-----------|
|111111-------------------------------------------|


|-------------------------------------|
|-------------------------------------|
|-------------------------------------|
|---0----------------5---8-7-5--------|
|3--0--5---5-4-3-2---3---6-5-3-5/7----|
|1--2--3---3-2-1-0-------------3/5----|


|---------------------------------------------------------|
|---------------------------------------------------------|
|---------------------------------------------------------|
|----6--6----6---4--6/----------8-----------------6-7-10--|
|----4--2----4---2--4/--4--7-7--6-----------6-7-9---------|
|-----------------------2--4-5--------4-5-8---------------|


|-------------------------------------------------------------|
|-------------------------------------------------------------|
|-------------------------------------------------------------|
|-------------------------------------------------------------|
|--444444444444-000000000000-----------------------5-6--------|
|----------------------------222222222222222222----3-4--------|

|------------------------------------|
|------------------------------------|
|-------------5---8---11---14--------|
|-------------4---7---10---13--------|
|--7--9-9----------------------------|
|--5--6-7----------------------------|


Tapping  
|-------12-6--3---13-6-3----14-6 3----15-6-3---15B---------|
|----------------------------------------------------------|
|----------------------------------------------------------|
|----------------------------------------------------------|
|----------------------------------------------------------|
|----------------------------------------------------------|


Добавлено: 12.05.2012
Другие материалы по этой песне:

Страница создана 29.02.2012
http://primanota.ru/carnivore/thermo-nuclear-warrior-chords.htm
Привет, Гость.
Предлагаем пройти революционный курс по гитаре.
Подарок от PrimaNota.Ru, забирай!