PrimaNota.ru - самый крупный в мире бесплатный архив песенных текстов, аккордов, табулатур и нот


Carmen Consoli - Moderato In Re Minore - текст песни, таба, видео

Регистрация Запомнить меня
Войти через:  Facebook Google Twitter Vk Yandex Mail.ru

Carmen Consoli - Moderato In Re Minore - текст песни, таба, видео

Печатать
Просмотров: 100
		   Ciao a tutti.
Visto che la vorrei suonare con una mia amica e adoro le accordature aperte,
posto la trascrizione completa.
Dalla strofa in poi ho trascritto da una versione live, dove la chitarra da
sola si sente
molto meglio rispetto al CD.
Alla fine ho messo le diteggiature degli accordi per chi volesse
strimpellarla in accordatura standard.

Ciao
Bonzo

CARMEN CONSOLI
Moderato in D minore

Accordatura: DADFAD (D A D F A Re) (Open Dm)

Time Signature: 3/4

Intro:
 Dm add9                 Rem7/F                  A7 (no 3°)
 |       |       |        |       |       |        |       |       |
|------------------------|------------------------|------------------------|
|7-----------7/----------|3-----------3/----------|0-----------0-----------|
|0-----------0-----------|------------0-----------|------------2-----------|
|--------0-----------0---|--------0-----------0---|--------2-----------2---|
|------------------------|------------------------|0---------------0-------|
|0---------------0-------|3---------------3-------|------------------------|
 a       p   a   p   i
 m           m
 p
         Dm              Dm add9                 Bb
 |       |       |        |       |       |        |       |       |
|----------------0-------|------------------------|------------------------|
|----------------0-------|7-----------7/----8-----|8-----------8-----------|
|2/------4---------------|------------0-----------|------------0-----------|
|------------3-------0---|--------0-----------0---|--------0-----------0---|
|------------------------|------------------------|------------------------|
|2/------3---------------|0---------------0-------|8---------------8-------|

 Am                      Solm            Solm7
 |       |       |        |       |       |        |       |       |
|------------------------|--------5---------------|------------------------|
|------------0-----------|----------------8-------|5/7---------7/----------|
|7-----------7-----------|5-----------------------|------------0-----------|
|--------7-----------5---|----5-------------------|--------0-----------0---|
|------------------------|------------------------|------------------------|
|7---------------7-------|5-------------------0---|0---------------0-------|

 |       |       |        |       |       |        |       |       |
|------------------------|------------------------|----------------0-------|
|3-----------3/----------|0-----------0-----------|----------------0-------|
|------------0-----------|------------2-----------|2/------4---------------|
|--------0-----------0---|--------2-----------2---|------------3-------0---|
|------------------------|0---------------0-------|------------------------|
|3---------------3-------|------------------------|2/------3---------------|

 |       |       |        |       |       |        |       |       |
|------------------------|------------------------|------------------------|
|7-----------7/----8-----|8-----------8-----------|------------0-----------|
|------------0-----------|------------0-----------|7-----------7-----------|
|--------0-----------0---|--------0-----------0---|--------7-----------0---|
|------------------------|------------------------|------------------------|
|0---------------0-------|8---------------8-------|7---------------7-------|

 |       |       |
|------------------------|
|------------------------|
|5-------4-------0-------|
|--------------------0---|
|------------------------|
|5-----------------------|


Prima strofa:

 Dm                                               Rem/C
|0-----------0-----------|0-----------0-----------|------------------------|
|0-----------0-----------|0-----------0-----------|5-----------5-----------|
|------------------------|0-----------------------|4-----------4-----------|
|------------------------|--------------------0---|------------------------|
|------------------------|------------------------|3---------------3-------|
|0---------------0-------|0---------------0-------|------------------------|
             Vigilia di Natale                             un giorno


                          Am add9-
 |       |       |        |       |       |        |       |       |
|------------------------|------------------------|------------------------|
|5-----------5-----------|------------0-----------|0-----------0-----------|
|4-----------4-----------|------------7-----------|7-----------7-----------|
|--------------------0---|--------------------8---|--------------------0---|
|3---------------3-------|------------------------|------------------------|
|------------------------|8---------------8-------|8---------------8/------|
 come gli altri  una      tazza       di latte     caldo       e


 A7 (no 3°)              La/C#
 |       |       |        |       |       |
|------------------------|------------------------|
|------------0-----------|------------------------|
|------------2-----------|------------4-----------|
|--------------------2---|--------------------0---|
|0---------------0-------|4---------------4p0-----|
|------------------------|------------------------|
 nessun regalo            da scartare

Seconda strofa:

 |       |       |        |       |       |        |       |       |
|------------0-----------|0-----------0-----------|------------------------|
|------------0-----------|0-----------0-----------|5-----------5-----------|
|--------------------0---|--------------------0---|4-----------4-----------|
|------------------------|------------------------|------------------------|
|------------------------|------------------------|3---------------3-------|
|0---------------0-------|0---------------0-------|------------------------|
         Auguri professore                         felice       anno

 |       |       |        |       |       |        |       |       |
|------------------------|------------------------|------------------------|
|5-----------5-----------|------------0-----------|0-----------0-----------|
|4-----------4-----------|------------7-----------|7-----------7-----------|
|--------------------0---|--------------------8---|--------------------0---|
|3---------------3-------|------------------------|------------------------|
|------------------------|8---------------8-------|8---------------8/------|
 nuovo                    d'un tratto un idecifrabile

 |       |       |        |       |       |
|------------------------|------------------------|
|------------0-----------|------------------------|
|------------2p----0-----|5-------4-------0-------|
|--------------------0---|--------------------0---|
|0---------------0-------|------------------------|
|------------------------|5-----------------------|
 imbarazzo                colmava i suoi occhi


Intro (prime 7 battute + l'ultima)

Terza e quarta strofa (+ o - come le prime 2)


Bridge (?):

 E sus4/D                                        Dm6
|       |       |        |       |       |        |       |       |

|------------------------|------------------------|------------------------|
|7-----------7-----------|7-----------7-----------|8-----------8-----------|
|6-----------6-----------|6-----------6-----------|6-----------6-----------|
|--------7-----------7---|--------7-----------7---|--------7-----------7---|
|5---------------5-------|5---------------5-------|------------------------|
|------------------------|------------------------|0---------------0-------|

 |       |       |
|------------------------|
|8-----------8-----------|
|6-----------6-----------|
|--------7-----------0---|
|------------------------|
|0---------------0-------|
                 ed

Ritornello:

 Am add9-                A7                      E sus4/D
 |       |       |        |       |       |        |       |       |
|------------------------|------------------------|------------------------|
|------------0-----------|------------------------|7-----------7-----------|
|------------7-----------|------------4-----------|6-----------6-----------|
|--------8-----------0---|--------5-----------0---|--------7-----------7---|
|------------------------|4---------------4-------|5---------------5-------|
|8---------------8-------|------------------------|------------------------|
 avrebbe                  voluto                   trovare     al suo


 Dm6                     Am add9-                Am
 |       |       |        |       |       |        |       |       |
|------------------------|------------------------|------------------------|
|8-----------8-----------|------------0-----------|------------0-----------|
|6-----------6-----------|------------7-----------|------------7-----------|
|--------7-----------0---|--------8-----------0---|--------7-----------0---|
|------------------------|------------------------|------------------------|
|0---------------0-------|8---------------8-------|7---------------7/------|
 fianco                   una compagna             premurosa ed


 Solm add9                                         Am add9-
 |       |       |        |       |       |        |       |       |
|------------------------|------------------------|------------------------|
|------------0-----------|----------------0-------|------------0-----------|
|5-----------5-----------|5-------5-------5-------|------------7-----------|
|--------5-----------5---|--------------------0---|--------8-----------0---|
|------------------------|------------------------|------------------------|
|5---------------5-------|5---------------5-------|8---------------8-------|
 amabile                                  ed       avrebbe


 A7                      E sus4/D               REm6
 |       |       |        |       |       |        |       |       |
|------------------------|------------------------|------------------------|
|------------------------|7-----------7-----------|8-----------8-----------|
|------------4-----------|6-----------6-----------|6-----------6-----------|
|------------5-------0---|--------7-----------7---|--------7-----------0---|
|4---------------4p0-----|5---------------5-------|------------------------|
|------------------------|------------------------|0---------------0-------|
 voluto                   sentire         il       calore      di  un


 Am add9-                Am                      Solm add9
 |       |       |        |       |       |        |       |       |
|------------------------|------------------------|------------------------|
|------------0-----------|------------0-----------|------------0-----------|
|------------7-----------|------------7-----------|5-----------5-----------|
|--------8-----------0---|--------7-----------0---|--------5-----------0---|
|------------------------|------------------------|------------------------|
|8---------------8-------|7---------------7/------|5---------------5-------|
 altro corpo sotto        le coperte


 A7
 |       |       |
|------------------------|
|0-----------0-----------|
|------------4-----------|
|--------5-----------0---|
|4---------------4p0-----|
|------------------------|


Intro (prime 7 battute + l'ultima)

Quinta e sesta strofa

Bridge

Ritornello (x2)

Intro completo

Accordo finale:

 E7 (no 3°)
 |       |       |
|------------------------|
|7-----------------------|
|6-----------------------|
|------------------------|
|5-----------------------|
|------------------------|



Accordi per accordatura standard

Intro:
Dm add9:    xx0230
Rem7/Fa:     100211
A7 (no 3°): x02030
Rem:         xx0231
Sib:         x13331
Lam:         x02210
Solm:        355333
Solm7:       353363

Strofa:
Rem:         xx0231
Rem/Do:      x3x231
Am add9-:   x02310 (meglio suonare La#sus2: x13311)
A7 (no 3°): x02030
La/Do#:      x42225

Bridge:
E sus4/Re:  xx0200
Rem6:        xx0201

Ritornello:
Am add9-:   x02310 (meglio suonare La#sus2: x13311)
La7:         x02020
E sus4/Re:  xx0200
Rem6:        xx0201
Am add9-:   x02310 (meglio suonare La#sus2: x13311)
Lam:         x02210
Solm add9:   300333
La7:         x02020

Accordo finale:
E7 (no 3°): 020430
     
Добавлено: 07.11.2013
Другие материалы по этой песне:

Страница создана 25.02.2012
http://primanota.ru/carmen-consoli/moderato-in-re-minore-chords.htm
Привет, Гость.
Предлагаем пройти революционный курс по гитаре.
Подарок от PrimaNota.Ru, забирай!