PrimaNota.ru - самый крупный в мире бесплатный архив песенных текстов, аккордов, табулатур и нот


Carmen Consoli - Mediamente Isterica (album) - аккорды и текст, видео

Регистрация Запомнить меня
Войти через:  Facebook Google Twitter Vk Yandex Mail.ru

Carmen Consoli - Mediamente Isterica (album) - аккорды и текст, видео

Печатать
Просмотров: 89
Mediamente Isterica (album)
Carmen Consoli
		   --------

                                             MEDIAMENTE ISTERICA

BESAME GIUDA
============

 INTRO: MIm DO LA

 MI        RE          DO      SI  MI    RE       FA#
 Sopravvissuta a quest'ultima prova   in fondo posso vantarmi
        MI DO       SI  MI  RE   DO#m
 di essere una donna *   con la D maiuscola
       MI        RE     DO       SI
 Certamente ho fatto tesoro dei tuoi
      MI        RE        FA#
 insegnamenti e posso ben dire
         MI  DO SI
 di essere una donna
       MI   RE   DO#m
 con la D maiuscola
       MI    DO   SI
 di essere una donna
       MI   RE      FA#
 con le carte in regola
  MI     RE     LA
 D come dannata ingenua
 DO         MI        RE   DO#m     RE
 per quanto tempo ho sentito i tuoi raggiri
 MI RE LA
 D come dannata ingenua
 DO     MI RE DO#m   RE
 per quanto tempo hai tramato alle mie spalle
  (Repeat Intro)
  MI     RE        DO     SI
 Ho digerito il boccone amaro
     MI    RE    FA#
 e conosco perfettamente
          MI   DO SI
 i tuoi scopi indegni
       MI   RE  DO#m
 come nessun'altra
       MI   RE      DO       SI
 Ho sepolto gli sciocchi idealismi infantili
     MI   RE   FA#
 e adesso posso affermare
      MI     DO  SI
 di essere una donna
       MI  RE  DO#m
 con la D maiuscola
      MI    DO  SI
 di essere una donna
      MI    RE FA#
 mediamente isterica
  MI     RE     LA
 D come dannata ingenua
 DO         MI        RE     DO#m     RE
 per quanto tempo ho sentito i tuoi raggiri
 MI RE LA
 D come dannata ingenua
 DO     MI RE DO#m   RE
 per quanto tempo hai tramato alle mie spalle
 MI     RE     LA
 D come dannata ingenua
 DO         MI          RE   DO#m       RE
 per quanto tempo hai strisciato tra le mie lenzuola
  (Repeat Intro)
  MIm  DO  LAm
 Giuda,
 DO       MIm DO LAm
 baciami ancora
 DO       MIm      DO    LAm
 Finchè avrai fiato e vita
 DO     MIm     DO   LAm
 Fino alla ricompensa (?)

 Besami, besami, besami, besami
 (MIm DO LAm DO)
  MIm     DO    LAm
 D come dannata ingenua -  D come dannata ingenua -  D come dannata ingenua
 Besame Mucho -  Consuelo Velasquez / arr. João Gilberto
=======================================================

 Am7            Dm7/A          A7         Dm7       E7/-9  Am7
 Besame, Besame mucho, Como si fuera esta noche, A ultima vez

 Em7    A7/-9        D/F#  Fm6 Am7             C7/G       B7/F#
 Fdim E7/+5
 Besame,      Besame Mucho,    Que tengo miedo      perderte, Perderte
 despues ...

 Am7            Dm7/A Bbm6 Dm7/A   A7         Dm7       E7/-9  Am7
 Besame, Besame mucho,     Como si fuera esta noche, A ultima vez

 Em7    A7/-9        D/F#  Fm6 Am7             C7/G       F#dim     Fdim E7
 Am7
 Besame,      Besame Mucho,    Que tengo miedo      perderte, Perderte
 despues ...

 Dm7/A     E7/-9      Am7                       Dm7/A       E7/-9      Am7
 Quiero Sentirte muy cerca, Mirarme en tus ojos,      Verte junto a mi

 Dm7/A      G#dim     C7/4/G   C7/G   B7/F#                  Fdim E7/+5
 Piensa que tal vez mañana, Yo estare lejos, Muy lejos de ti ...

 Am7            Dm7/A Bbm6 Dm7/A   A7         Dm7       E7/-9  C7M/G  
 Besame, Besame mucho,     Como si fuera esta noche, A ultima vez

 Em9    A7/+5        D/F#  Fm6 Am7             C7/G       F#dim     Fdim E7
 Am7
 Besame,      Besame Mucho,    Que tengo miedo      perderte, Perderte
 despues ...

 PURAMENTE CASUALE
=================

Introduzione:  SI /RE /FA#/DO (2 VOLTE)
Strofe:  SI/ SOL# MINORE /FA#
Rit.   SI/ DO# MINORE/ MI

D||------------------|----------------------|---------------------|----------------------|
A||------------------|------2~---2~-0~------|--1~---2~-4~---------|------2~---2~-0~------|
E||------------------|-------------------2~-|---------------------|-------------------2~-|

D------------------|----------------------|---------------------|------1--------------|
A------------------|------2----2--0-------|--1~---2~-4~---------|-----------2----0----|
E------------------|-------------------2--|---------------------|---------------------|

                                               Sorrido....
e--------------------|-------------------|-----------2----------|--------------------------|
B--------------------|-------------------|-----------2----------|-----------0-----------0--|
G--------------------|-------------------|--------4-------------|--------4--4--------4--4--|
D--------------------|--4----------------|-----4----------------|-----4-----------4--------|
A--1/-------4--------|-------------------|--2-------------------|--------------------------|
E--------------------|-------------------|----------------------|--4-----------2-----------|

e--------------------------|--------------------------|--------------------------|
B-----------0-----------0--|-----------4-----------0--|-----------0-----------0--|
G--------4--4--------4--4--|--------4--4--------4--4--|--------4--4--------4--4--|
D-----4-----------4--------|-----4-----------4--------|-----4-----------4--------|
A--2-----------4-----------|--------------------------|--2-----------4-----------|
E--------------------------|--4-----------2-----------|--------------------------|


e--------------------------|--------------------------|--------------------------|
B--------4--5-----------0--|-----------0-----------0--|-----------0-----------0--|
G--------4--4--------4--4--|--------4--4--------4--4--|--------4--4--------4--4--|
D-----4-----------4--------|-----4-----------4--------|-----4-----------4--------|
A--------------------------|--2-----------4-----------|--------------------------|
E--4-----------2-----------|--------------------------|--4-----------2-----------|

  Assisto......
         Bsus2        G#sus4       G#m          F#             Bsus2
G#sus4
e|--------2------------4----|-------4------------2-----||-------2------------4----|
B|--------2------------4----|-------4------------2-----||-------2------------4----|
G|*-------4------------6----|-------4------------3----*||-------4------------6----|
D|*-------4------------6----|-------6------------4----*||-------4------------6----|
A|---2----2--0-0-4--4--4----|-------6------------4-----||--2----2--0-0-4--4--4----|
E|--------2------------4----|--4----4--0-0-2--2--2-----||-------2------------4----|

       G#m          F#           Bsus2        G#sus4       G#m
e-------4------------2----|-------2------------4----|-------4----|--5----------------|
B-------4------------2----|-------2------------4----|-------4----|--5----------------|
G-------4------------3----|-------4------------6----|-------4----|--6----------------|
D-------6------------4----|-------4------------6----|-------6----|--7----------------|
A-------6------------4----|--2----2--0-0-4--4--4----|-------6----|--7----------------|
E--4----4--0-0-2--2--2----|-------2------------4----|--4----4----|--5----------------|

                         Sia per inteso...
                             Bsus2        C#sus2       Esus2              3x
------------------||---------2------------4----|-------7--7----7--7-------||
------------------||---------2------------4----|-------7--7----7--7-------||
------------------||*--------4------------6----|-------9--9----9--9------*||
------------------||*--------4------------6----|-------9--9----9--9------*||
------------------||---2--2--2--0-0-4--4--4----|--7----7--7----7--7--0-0--||
------------------||---------------------------|--------------------------||

--------2------------4----|------------------|----------------------|---------------------|
--------2------------4----|------------------|----------------------|---------------------|
--------4------------6----|------------------|----------------------|---------------------|
--------4------------6----|------------------|----------------------|---------------------|
--2--2--2--0-0-4--4--4----|------------------|------2~---2~-0~------|--1~---2~-4~---------|
--------------------------|------------------|-------------------2~-|---------------------|

----------------------|------------------|----------------------|---------------------|
----------------------|------------------|----------------------|---------------------|
----------------------|------------------|----------------------|---------------------|
----------------------|------------------|----------------------|---------------------|
------2~---2~-0~------|------------------|------2----2--0-------|--1~---2~-4~---------|
-------------------2~-|------------------|-------------------2--|---------------------|

                                                                  Rispondo..
---------------------|--------------------|------------------|-----------2----------|
---------------------|--------------------|------------------|-----------2----------|
---------------------|--------------------|------------------|--------4-------------|
------1--------------|--------------------|------------------|-----4----------------|
-----------2----0----|--1/-------4--------|------------------|--2-------------------|
---------------------|--------------------|------------------|----------------------|

--------------------------|--------------------------|--------------------------|
-----------0-----------0--|-----------0-----------0--|-----------4-----------0--|
--------4--4--------4--4--|--------4--4--------4--4--|--------4--4--------4--4--|
-----4-----------4--------|-----4-----------4--------|-----4-----------4--------|
--------------------------|--2-----------4-----------|--------------------------|
--4-----------2-----------|--------------------------|--4-----------2-----------|

--------------------------|--------------------------|--------------------------|
-----------0-----------0--|--------4--5-----------0--|-----------0-----------0--|
--------4--4--------4--4--|--------4--4--------4--4--|--------4--4--------4--4--|
-----4-----------4--------|-----4-----------4--------|-----4-----------4--------|
--2-----------4-----------|--------------------------|--2-----------4-----------|
--------------------------|--4-----------2-----------|--------------------------|

                             E adeguo.....
                                    Bsus2        G#sus4       G#m
F#
--------------------------||--------2------------4----|-------4------------2-----||
-----------0-----------0--||--------2------------4----|-------4------------2-----||
--------4--4--------4--4--||*-------4------------6----|-------4------------3----*||
-----4-----------4--------||*-------4------------6----|-------6------------4----*||
--------------------------||---2----2--0-0-4--4--4----|-------6------------4-----||
--4-----------2-----------||--------2------------4----|--4----4--0-0-2--2--2-----||

       Bsus2        G#sus4       G#m          F#           Bsus2
G#sus4       G#m
-------2------------4----|-------4------------2----|-------2------------4----|-------4----|
-------2------------4----|-------4------------2----|-------2------------4----|-------4----|
-------4------------6----|-------4------------3----|-------4------------6----|-------4----|
-------4------------6----|-------6------------4----|-------4------------6----|-------6----|
--2----2--0-0-4--4--4----|-------6------------4----|--2----2--0-0-4--4--4----|-------6----|
-------2------------4----|--4----4--0-0-2--2--2----|-------2------------4----|--4----4----|

                                         Sia per inteso.....

9x
--5----------------|------------------||---------2------------4----|-------7--7----7--7-------||
--5----------------|------------------||---------2------------4----|-------7--7----7--7-------||
--6----------------|------------------||*--------4------------6----|-------9--9----9--9------*||
--7----------------|------------------||*--------4------------6----|-------9--9----9--9------*||
--7----------------|------------------||---2--2--2--0-0-4--4--4----|--7----7--7----7--7--0-0--||
--5----------------|------------------||---------------------------|--------------------------||

                                                       Hai davvero........
--------2------------4----|-------7--7----7--7------||---2----2----4----4----|
--------2------------4----|-------7--7----7--7------||---2----2----4----4----|
--------4------------6----|-------9--9----9--9------||*--4----4----6----6----|
--------4------------6----|-------9--9----9--9------||*--4----4----6----6----|
--2--2--2--0-0-4--4--4----|--7----7--7----7--7--0-0-||---2----2----4----4----|
--------------------------|-------------------------||-----------------------|

3x                                                      4x
--7----7----7----7-----||---------2------------4----|-------7--7----7--7-------||
--7----7----7----7-----||---------2------------4----|-------7--7----7--7-------||
--9----9----9----9----*||*--------4------------6----|-------9--9----9--9------*||
--9----9----9----9----*||*--------4------------6----|-------9--9----9--9------*||
--7----7----7----7-----||---2--2--2--0-0-4--4--4----|--7----7--7----7--7--0-0--||
-----------------------||---------------------------|--------------------------||

--------2------------4----|--6/-7--7--7----------|------------------|------------------|
--------2------------4----|--6/-7--7--7----------|------------------|------------------|
--------4------------6----|--8/-9--9--9----------|------------------|------------------|
--------4------------6----|--8/-9--9--9----------|------------------|------------------|
--2--2--2--0-0-4--4--4----|--6/-7--7--7----------|------------------|------------------|
--------------------------|----------------------|------------------|------------------|

------------------|------------------|------------------||
------------------|------------------|------------------||
------------------|------------------|------------------||
------------------|------------------|------------------||
------------------|------------------|------------------||
------------------|------------------|------------------||
 SENTIVO L'ODORE
===============

 Dm / Do#m
 Dolce amore non fiatare
 Sono a dir poco angosciata dalle tue ansie
 Da quando ho scoperto di essere il tuo ripiego
 Quanto ho provato vergogna per ciò che ho pensato


 Dm                          Sol
 Per ciò che avrei voluto far e non ho fatto
    C                        Sol
 Per come avrei voluto ucciderti

 A C E                             A C E
          SENTIVO   L'ODORE
 Dm  Bb     F    A    Dm Bb
 Mentre sprofondavi fra le sue labbra
 F              A
 pregavi perché     non finisse
 Dm Bb         F   A      Dm Bb
        mentre mi annientavi fra le sue labbra
 F                 A
 Sperando che non    fosse breve

 Dm
 Dm / Do#m
 Dolce amore randagio ecco cosa cercavi
 Tra i rifiuti e gli scarti del genere umano
 Da quando conflitto fra sacro e maligno invecchia
 E quel martellante pulsare di sano piacere

 Vai a  (%)

          Dm         Bb       A
 che non fosse breve           ah  ah (4 volte)
 E tutto questo per dirti solamente che....

 Dm         Bb        Dm        Bb         Dm       Bb    Dm  F
 Ho pagato fino in fondo ho pagato fino in fondo ho pagato fino in fondo
aahhh (3 volte)

 Dm  Bb  Dm  Bb Dm Bb Dm F / A C E / A C E
 AUTUNNO DOLCIASTRO
==================

      Solm          Bb
 Lentamente tra una pagina e l'altra
       Dm                 C
 di un libro qualunque ingannavo l'attesa
      Solm          Bb
 già settembre poche voci distanti
      Dm                     C
 e un autunno distratto al dì là deì vetri

 Solm  C              Dm       C
 quasi speravo che non arrivassi più
 Solm  C              Dm         C
 quasi credevo che non mi mancassi
                    Bb
 eppure stavo aspettando
 Bm        D        A          E
    distrarsi  sembrava  piuttosto facile
 Bm     D       A      E
 credevo di sopportare la tua indifferenza
 Bm      D         A      E
 cercando pretesti e rimedi inutili

 Bm  D C

    Sol Bm        A          Sol Bm       A
 eri tu quel tasto dolente eri tu autunno dolciastro
     Sol
 eri tu

       Solm      Bb
 Freddamente valutavo i miei limiti
    Dm                  C
 i gesti avventati le frequenti rinunce
     Solm    Bb
 era tardi e bruciavano gli occhi
  Dm                       C
 fissavo il soffitto il mio letto disfatto

 Solm   D               Dm       C
 quasi speravo che non arrivassi più
 Solm   C                 Dm     C
 quasi credevo che non mi mancassi
                          Bb
 eppure stavo aspettando
  Bm        D        A          E
    distrarsi  sembrava  piuttosto facile
 Bm     D       A      E
 credevo di sopportare la tua indifferenza
 Bm      D      A   E
 cercando pretesti e rimedi inutili
 Bm       D       LA     E
   credevo dì soffocare la mia insofterenza

 Bm  D  A  E

     Sol        Bm   A       Sol     Bm        A
 eri tu quel tasto dolente eri tu autunno dolciastro
     Sol        Bm     A             Sol
 eri tu  quel tasto dolente eri tu
     Bm        A
 autunno dolciastro
    Bm        Sol ...
 autunno dolciastro ...

 ENNESIMA ECLISSE
================

 Intro: B E C# E

 E Labm ...
 In effetti sembra notte    fonda
 l'ennesima eclisse    tra un dolore e un altro
 qua giù all'inferno s'invecchia
 l'aria è più accesa qua giù
 all'inferno si cambia più spesso rotta

 Do#m     E            Do#m
       nessuna beata certezza ne l'ombra
 E               LAb A    Eb E
 di commovente pietà  ... ah ah

 Labm      E         C#          E
 non pensare che sia distante non pensare
 non pensare che sia distante non pensare
 non pensare che sia distante da qui

      Ab         A E
 vedo la tua casa...

 IN FUNZIONE DI NESSUNA LOGICA
=============================



Em7 C5- (do fa# do-si)  x  4
Em7        C5-          Em7       C5
Confesso l'ho fatto apposta
     Em7    C5-  B5         B5
nell'intento di ferirti
Em7         C5-    Em7        C5-
ti sembrero' alquanto stupida
      Em7   C5-    B5      B5
sicuramente immatura

C7+                Am9              C7+                   Am9
per tutte quelle volte in cui ho sentito l'istinto di abbracciarti
C7+           G                             F               F
per tutte quelle volte in cui ho creduto sul serio

C7+          Am9         C7+
di annullarti dalla mia testa
            Am9         Bbadd9
annullarti dalla mia testa
                Am7
annullarti
C5         Bb5       C5/A          F5 (Cap. VII)
il tutto in funzione di nessuna logica

Em7      C5-    Em7   C5-
ammetto ero al sicuro
            Em7  C5-   B5    B5
nel mio guscio di carta pesta
Em7   C5-   Em7           C5-
ho agito facendo in modo
     Em7          C5-      B5     B5
di non mostrare incoerenza

C7+              Am9              C7+                        Am9
per tutte quelle volte in cui ho cercato di non assecondarti
G                 F                           Am7    F
per tutte quelle volte in cui ho creduto sul serio


C7+          Am9         C7+
di annullarti dalla mia testa
            Am9         Bbadd9
annullarti dalla mia testa
                Am7
annullarti
C5         Bb5       C5/A          F5 (Cap. VII)
il tutto in funzione di nessuna logica


 GEISHA
======

 Intro E

 E
 Le infuocate carezze
 L'invidiabile savoir faire
 dolce intenso e brutale ah!
 Quanta nobile poesla
 padre, amante, padrone
 nel tuo conto corrente ah!

 C#                D   E
     In salute ed in malattia
 finche morte non ci separi

 C# B E

 E
 vorticosa passione
 o mia belva insaziabile
 nel tuo caldo e accogliente harem

 Do#9                D   E
     In salute ed in malattia
 finche morte non ci separi

 C9                  Do#9 C9

 Do#9          E Do#9                E
     fai di me          la tua geisha
 Do#9          E Do#9         B
     fai di me          la tua umile serva....

 ECO DI SIRENE
=============


Intro: Mim* (022002)
 Em (022000)
 C9 (032022)
Rit: Sol (320003)
 Re4 (000233)
 Mim** (022003)
 Do* (032013)


Em7       Em        C  Re4 D
Sorde e implacabili sirene
Em7                 C   Re4 D
davano il triste annuncio
Em7         Em        C     D      Em7        Em      C  Re4 D
mentre il tramonto inondava i viali deserti di oscuri presagi
Em          Em7       C         D
giochi di potere sulla nostra pelle
     Em          Em7    C        D
su quegli uomini armati di romantici ideali
A                          C
qualunque sia il compenso ah
A                         C  D
non restituirà mai il giusto
Sol      Re4         Mim**         Do*
Saremo pronti a celebrare la vittoria
Sol     Re4         Mim**         Do*
e brinderemo lietamente sulle nostre rovine
Sol        Re4          Mim**          Do*
saranno in pochi a riscattarsi dalla povertà
Sol         Re4             F
a rallegrarsi della gloria per quanto infinita


RIPETE INTRO


L'eco tagliente di sirene sulle ferite aperte
aspettavamo impotenti gli attacchi nemici
forse per l'ultima volta
giochi di potere sulla nostra pelle
sulle infanzie sciupate violentate irrimediabilmente
chi pagherà per questo
chi ne porterà il segno
Saremo pronti a celebrare la vittoria
e brinderemo lietamente sulle nostre rovine
saranno in pochi a riscattarsi dalla povertà
a rallegrarsi della gloria per quanto infinita
F           Em      Em7    Em     F
Sconfitti e vincenti ah      ah      ah
               Em     Em7   Em  F
ricostruiremo ah      ah          ah
                Em   D
sconfitti e vincenti


RIPETE RIT.


Saremo pronti a celebrare la vittoria
e brinderemo lietamente sulle nostre rovine
saremo pronti a celebrare la vittoria
e brinderemo lietamente sulle nostre rovine
sconfitti e vincenti
sconfitti e vincenti
sconfitti e vincenti

[...]


Nota: * vicino agli accordi dei quali non conosco il nome

 QUATTORDICI LUGLIO
==================

E||------------------------------------------|----------------------|----------------------|
B||--2-----2----2--------------2-----2-------|--2-----2---------2--2|--2-----2---------2---|
G||-----------------------3------------------|-------------3--------|-------------3--------|
D||4---4-3---3-4---4-3-4-1--1-3--3-4---4-3-4-|-4---4-3--3-1--1-3--3-|-4---4-3--3-1--1-3--4-|
A||------------------------------------------|----------------------|----------------------|
E||------------------------------------------|----------------------|----------------------|
                                                      Guardavo...

----------------------|--------------------------|---------------------|---------------------|
--2-----2---------2--2|--2-----2--------2--------|--2----2---------2--2|--2-----2---------2--|
-------------3--------|-------------3------------|------------3--------|--------------3------|
-4---4-3--3-1--1-3--3-|-4---4-3--3-1-1-----------|4---4-3--3-1--1-3--3-|-4---4-3--3-1--1-3--4|
----------------------|----------------2---------|---------------------|---------------------|
----------------------|--------------------------|---------------------|---------------------|
                                        Mentre parlava...

------------------------------------------|---------------------|-----------------------------|
--2----2-----2-------------2-----2--------|--2----2---------2--2|--2-----2--------2-----------|
-----------------------3------------------|------------3--------|-------------3---------------|
4---4-3---3-4---4-3-4-1--1-3--3-4---4-3-4-|4---4-3--3-1--1-3--3-|-4---4-3--3-1-1--------------|
------------------------------------------|---------------------|----------------2------------|
------------------------------------------|---------------------|-----------------------------|
     A la la la la......                       Guardavo....
riuscivo

-------------------------------|-------2-----2-|
------2-----------2--------2---|---2------2----|
----------------------3--------|---------------| si - do# - si -
do-------si----------do#------
-4--------4--3-----3-1--1-3--3-|-4--4-1--------|
-------------------------------|---------------|
-------------------------------|---------------|
a stento trattenere.....                 dolore                     misto
all'incenso il sapore

--------------------------------------------------|
--------------------------------------------------|
--------------------------------------------------|       si          do#
fa#
------4---4----3-3-3-3---4---4---3-3-3-3----------|
------4---4----4-----4---4---4---4-----4----------|
----------------------------------------------4--4|
di un pasto frugale i ricordi storditi dal tempo    pur essendo simile a
tante, tante, altre

                                                          B
-----------------------------||-------------------------|
-----------------------------||-------------------------|
-----------------------------||-------------------------| da capo fino a B
-3---------------------9-8---||---------------------8---|
-4-------------------9-------||----6---4-4--8_9_8--8----|
------------7-------------9-9||-------------------6---7-|
persone era speciale.......... speciale

-----------------------------------------------|-----------------------------------|
-----------------------------------------------|-----------------------------------|
-----------------------------------------------|-----------------------------------|
-----------------------------------------------|--------------------------------4--|
-------6-----------4-----------2-----------4---|-6---------4---------2-2-------4---|
-----------------------------------------------|-----------------------------------|
mi lasciavo      sedurre dalle sue        manie  la la la la la .....

------------------------------------------------|----------------------------------|
------------------------------------------------|----------------------------------|
------------------------------------------------|----------------------------------|
------------------------------------------------|-------------------------------4--|
--------6-----------4-----------2----------4----|-6----------4-------2-2-------4--4|
------------------------------------------------|----------------------------------|
mi lasciavo       sedurre dalle sue        manie  la la la la la.....

-----------------------------------||
-----------------------------------||
-----------------------------------||
-4-4--8-8--6-6--8-8-4--8-8--6-6--8-||
-4-4---4---4-4---4--4---4---4-4----||
-----------------------------------||




 Intro: F# C# F# C# B C# F# C# F#

 C#        Rem#      C#           F#
    Guardavo   le sue mani che stuzzicavano
      C#           F#   C#  F#
 insolenti una rosa finta
 C#     Rem#    C#
   ed era   così dolce
    F#                C#       F#   C#
 il modo in cui nascondeva l'ìmbarazzo
           F#         C#   Rem#     C#
 mentre parlava e sorrideva ironìcamente
                   F#  C#
 delle proprie sventure
        Rem#          C#
 teneva     gli occhi bassi

 F# C# F# C# B C# F# C# F#

 C#        Rem#    C#             F#
    Guardavo le sue mani che si intrecciavano
         C#           F#   C#  F#
 tra i ricami di una tovaglia
              C#     Rem#    C#
 riuscire a stento a trattenere la voglia
        F#            C#
 di afferrarle di aggredire il suo dolore

 B C# B C#

            B          C#       Rem#      C#
 misto all'incenso il sapore di un pasto frugale
     B        C#      Rem#
 i ricordi storditì dal tempo
        B       C#
 pur essendo simile a tante
   Dm         C#         B      C#            Rem# C# B
 e tante altre persone era speciale... speciale

 ANELLO MANCANTE
===============

A        Bm

 Prima luce   del mattino
    C              Sol           A
 ti ho aspettato cantando a bassa voce
       Bm              Em Sol
 e non è la prima volta
      A            Bm
 ti ho anche seguita    con lo sguardo
 C                      Sol              LA
 sopra il tavolo e tra i resti del giorno prima
   C                 Em Sol
 e tra le sedie vuote
    D              Em
 qualcosa nell'aria suggeriva
    D                   C
 in fondo non c'è troppa fretta
          D
 mentre accarezzavo
    Em            D
 l'idea delle coincidenze
       C
 raccoglievo segnali
   D D6  Sol          C
 spiegami cosa ho tralasciato
          D                Sol             C       D
 é quell'anello mancante la fonte di ogni incertezza
   D  D6 C
 spiegami  cosa mi è sfuggito...

 CONTESSA MISERIA
================

 intro E A
           E    A      C       D        E   A C D
 L'ho incontrata diverse volte piuttosto ubriaca
        E  A    C      D   E   A        C       D
 la chiamavano contessa miseria        per la sua aridità
     E   A  C    D   E    A    C     D
 Era disperatamente sola  alle porte dei sessanta
 E    A     C     D       E   A       C
 tristemente avvolta    da vistose piume di struzzo
      D      Sol         B
 e vri ferraglie, sul muro della sua casa la scritta
 C   B      Em      Sol  C      B    Em           Sol
   contessa miseria la vita prima o poi estingue il suo debito
 C   B      Em      Sol  C      B    Em         Sol
   contessa miseria la vita prima o poi colpisce a sorpresa
          E         A       C        D        E A C  D
 Nei suoi occhi il terrore costante del tempo che passa
      E    A       C    D   E       A C     D
 ed avrebbe dato qualunque cosa   per un elisir di lunga vita
     E   A  C    D   E     A    C     D
 era disperatamente sola   alle porte dei sessanta
 E      A       C   D       E      A         C       D
    dolcemente assorta   tra gloriosi ricordi impregnati di ciprie
      Sol                               B
 e di rien ne va plus

 C   B      Em      Sol  C      B    Em           Sol
   contessa miseria la vita prima o poi estingue il suo debito
 C   B      Em      Sol  C      B    Em         Sol
   contessa miseria la vita prima o poi colpisce a sorpresa
 C      B     Em       Sol   C   B    Em
 senza chiedere senza preavviso   contessa miseria
              Sol
 la mente ibernata a vent'anni

 B                A                        C#
 vittima dell'inganno di questo secolo
 che rincorre il mito di forme avvenenti
         F#                      A
 e di chirurgia estetica

 E              A
     contessa      miseria
 la mente non cambia contessa miseria ...

 L'ULTIMA PREGHIERA
==================

 Em Am

A rogo strega eretica anatasidavres
 e le tue ceneri si disperderanno col vento
 A rogo strega isterica
 e le tue mani non dissemineranno mai più cattiva sorte
 che la tua voce si ammutolisca per sempre shh
 Credo di non sopportare questo lamento straziante
 adesso le fiamme asciugano le tue lacrime
 e il tuo sguardo non si poserà mai più sui nostri bambini innocenti
 hai tempo per l'ultima maledizione o per l'ultima preghiera
 tra migliaia di scongiuri
 Credo di non sopportare questo lamento straziante
 e le tue mani non dissemineranno mai più cattiva sorte
 e le tue mani non dissemineranno mai più cattiva sorte
 e le tue mani non dissemineranno mai più cattiva sorte
 miseria miseria



     
Добавлено: 10.09.2013
Другие материалы по этой песне:
  • Аккорды и текст

Страница создана 10.09.2013
http://primanota.ru/carmen-consoli/mediamente-isterica-album-chords.htm
Привет, Гость.
Предлагаем пройти революционный курс по гитаре.
Подарок от PrimaNota.Ru, забирай!