PrimaNota.ru - самый крупный в мире бесплатный архив песенных текстов, аккордов, табулатур и нот


Carmen Consoli - L'Eccezione - аккорды и текст, видео

Регистрация Запомнить меня
Войти через:  Facebook Google Twitter Vk Yandex Mail.ru

Carmen Consoli - L'Eccezione - аккорды и текст, видео

Печатать
Просмотров: 112
L'Eccezione
Carmen Consoli
		   --------

L'eccezione - C Consoli
________________________
Trascritto da: Sciamano110

-[Intro]- Do#m  A  E  B  (X2)

|-----4-----4--2~--5--4--2------------
|--5-----4------------------5--4--5~--
|-------------------------------------
|-------------------------------------
|-------------------------------------
|-------------------------------------

|------------------------------2~-----
|--2--4--5--4--2--4------4--5---------
|--------------------1----------------
|-------------------------------------
|-------------------------------------
|-------------------------------------

-[Bass Riff]-
|---------------
|---------------
|---------------  Basso
|---------------    *
|--5/7-6-4------
|----------7-5--


-[Strofa]-  E  A  Fa#m  B


*
Soffro nel vederti infrangere
i principi sui quali era
salda un'esemplare dignità

*
condizione inammissibile
la discutibile urgenza
per cui è indispensabile
uniformarsi alla media

  Do#m                 A
B dice che ad ogni rinuncia
      E                B
corrisponda una contropartita
      Do#m    A
considerevole
                   E
ma l'eccezione alla regola
  B
insidia la norma
    Do#m                 A
se è vero che ad ogni rinuncia
      E                B
corrisponde una contropartita
      Do#m    A
considerevole
            E
privarsi dell'anima
 B               Do#m   La]
comporterebbe una lauta ricompensa

*
Soffro nel vederti compiere
bizzarre movenze
indotte da un burattinaio
scaltro

*
credi sia una scelta ammirevole
fuggire allo sguardo severo e vigile
della propria coscenza

  Do#m                 A
B dice che ad ogni rinuncia
      E                B
corrisponda una contropartita
      Do#m    A
considerevole
                   E
ma l'eccezione alla regola
  B
insidia la norma
    Do#m                 A
se è vero che ad ogni rinuncia
      E                B
corrisponde una contropartita
      Do#m    A
considerevole
            E
privarsi dell'anima
 B               Do#m   A
comporterebbe una lauta ricompensa

-[Strum]-  E  B  Do#m  A  E  B

    Do#m                 A
Se è vero che ad ogni rinuncia
      E                B
corrisponde una contropartita
      Do#m    A
considerevole
            E
privarsi dell'anima
 B               Do#m   A
comporterebbe una lauta ricompensa

-[Outro]-

--
----------------------------------
Flavio - Sciamano110
Go Now
http://clix.to/sciamano110


     
Добавлено: 19.10.2013
Другие материалы по этой песне:
  • Аккорды и текст

Страница создана 09.04.2012
http://primanota.ru/carmen-consoli/leccezione-chords.htm
Привет, Гость.
Предлагаем пройти революционный курс по гитаре.
Подарок от PrimaNota.Ru, забирай!