PrimaNota.ru - самый крупный в мире бесплатный архив песенных текстов, аккордов, табулатур и нот


Carly Comando - Everyday - текст песни, таба, видео

Регистрация Запомнить меня
Войти через:  Facebook Google Twitter Vk Yandex Mail.ru

Carly Comando - Everyday - текст песни, таба, видео

Печатать
Просмотров: 1863
          
e|-------------------------------------|
B|-------------------------------------|
G|-----2-----2-----2----2-----2-----2--|
D|---2-----2-----2----2-----2-----2----|
A|-------------------------------------|
E|-------------------------------------|

          
e|-------------------------------------|
B|-------------------------------------|
G|-----2-----2-----2----2-----2-----2--|
D|---3-----3-----3----3-----3-----3----|
A|-------------------------------------|
E|-------------------------------------|

          
e|-------------------------------------|
B|-------------------------------------|
G|-----0-----0-----0----0-----0-----0--|
D|---2-----2-----2----2-----2-----2----|
A|-------------------------------------|
E|-------------------------------------|

          
e|-------------------------------------|
B|-------------------------------------|
G|-----1-----1-----1----1-----1-----1--|
D|---2-----2-----2----2-----2-----2----|
A|-------------------------------------|
E|-------------------------------------|
Добавлено: 24.05.2012
Другие материалы по этой песне:

Страница создана 11.03.2012
http://primanota.ru/carly-comando/everyday-chords.htm
Привет, Гость.
Предлагаем пройти революционный курс по гитаре.
Подарок от PrimaNota.Ru, забирай!