PrimaNota.ru - самый крупный в мире бесплатный архив песенных текстов, аккордов, табулатур и нот


Carlos Santana - You Just Don't Care - текст песни, таба, видео

Регистрация Запомнить меня
Войти через:  Facebook Google Twitter Vk Yandex Mail.ru

Carlos Santana - You Just Don't Care - текст песни, таба, видео

Печатать
Просмотров: 136
Авторы музыки: Michael Carabello, Jose "Chepito" Áreas, Gregg Rolie, Michael Shrieve, David Brown, Carlos Santana

-----------------------------------------------------------------
                   You Just Don't Care - Santana
-----------------------------------------------------------------

Tabbed By : Aeonoptic
e-mail: aeonoptic@gmail.com

Tuning: EADGBe

E|-----------------------|-----------------------|---------------------|-----------------|-----------------|
B|-----------------------|-----------------------|---------------------|-----------------|-----------------|
G|-----------------------|-----------------------|---------------------|-----------------|-----------------|
D|-----------------------|-----------------------|---------------------|-----------------|-----------------|
A|5-4-2-5-4-2-5-4-2-5-4-2|5-4-2-5-4-2-5-4-2-5-4-2|----2-----------2----|2-----------2----|2-----------2----|
E|-----------------------|-----------------------|0-----3-0-0-0-0---3-0|--3-0-0-0-0---3-0|--3-0-0-0-0---3-0|

E|-----------------|--------------|--------------|----------------|-----------|-----------------------|
B|-----------------|--------------|--------------|----------------|-----------|-----------------------|
G|-----------------|--------------|--------------|----------------|-----------|-----------------------|
D|-----------------|0h2---2h3~~--2|2h3---3h5~~--3|3h5---5h7~~--7p5|5h7---7h9~~|10-9h10-7-9-10-9h10-7-9|
A|2-----------2----|--------------|--------------|----------------|-----------|-----------------------|
E|--3-0-0-0-0---3-0|--------------|--------------|----------------|-----------|-----------------------|

                   rake
E|----------------|----12------------------------|---------|-----------------------|
B|----------------|--12--------------------------|---------|--------12b-12b--------|
G|----------------|12-----14-12------------------|---------|--------12b-12b--------|
D|10-9h10-7-7h9~~~|-------------14---------------|---------|-----14---------12h14~~|
A|----------------|----------------12h14-12------|---------|-----------------------|
E|----------------|-------------------------15~~~|(15)~~~~~|15\--------------------|


E|---------------|------------------------|12-------------12------------------------------|
B|---------------|12b-12b-----------------|---15-12----------15p12h15p12h15p12h15p12h15p12|
G|2h4-3-2--------|12b-12b----------14b16~~|---------14b16---------------------------------|
D|--------5-4-3-2|--------12h14~~---------|-----------------------------------------------|
A|---------------|------------------------|-----------------------------------------------|
E|---------------|------------------------|-----------------------------------------------|

                                                                                     rake
E|---------12----------------|----------------17b19-17pb19-15-17---|15------------------12------------------|
B|------12-------------------|12b-12b----------------------------17|---15-17-15-------12---15p12h15p12h15p12|
G|14b16-------14br16p12------|12b-12b------------------------------|------------16--12----------------------|
D|----------------------14-14|--------12h14~~----------------------|----------------------------------------|
A|---------------------------|-------------------------------------|----------------------------------------|
E|---------------------------|-------------------------------------|----------------------------------------|

E|----------------------------|
B|12b-12b---------------------|
G|12b-12b---------------------|
D|--------12h14~~--2-4-5/7/9\7|
A|----------------------------|
E|----------------------------|

  Emin        Amin          Emin                            Emin            Amin           Emin
  I told you, you'd have to leave here                      And you listened with a cryin' stare
E|------------------------------------|--------------------|------------------------------------|
B|------------------------------------|12b-12b-------------|------------------------------------|
G|------------------------------------|12b-12b-------------|------------------------------------|
D|------------------------------------|--------14~---------|------------------------------------|
A|------------------------------------|------------12h14\10|------------------------------------|
E|------------------------------------|--------------------|------------------------------------|

                      Emin               D                 Amin Emin
                      Now you've got the nerve, to tell me baby
E|-------------------|-----------------------------------------|----------------------|
B|12b-12b----15b17~~~|-----------------------------------------|12b-12b---------------|
G|12b-12b------------|-----------------------------------------|12b-12b---------------|
D|--------14---------|-----------------------------------------|--------14------------|
A|-------------------|-----------------------------------------|-----------12h14p12\10|
E|-------------------|-----------------------------------------|----------------------|

  Emin        D                Amin Emin
  Yeah, yeah, no no, you don't care                     You just don't care baby
E|---------------------------------|-------------------|-----------------------------------|
B|---------------------------------|12b-12b----15b17~~~|-----------------------------------|
G|---------------------------------|12b-12b------------|--------------------12br14p12------|
D|---------------------------------|--------14---------|------------------------------14-14|
A|---------------------------------|-------------------|-----------------------------------|
E|---------------------------------|-------------------|-----------------------------------|


E|---------------------------|----------------------------------|---------12----------------12------|
B|12b----12b----12b----12b---|12b----12b---------12b-12b--------|------12----15p12-------12----15p12|
G|12b----12b----12b----12b---|12b----12b---------12b-12b--------|14b16-------------14b16------------|
D|----14-----14-----14-----14|----14-----14---14---------12h14~~|-----------------------------------|
A|---------------------------|----------------------------------|-----------------------------------|
E|---------------------------|----------------------------------|-----------------------------------|

                                      rake
E|---------12------------------------|----12-----------------------|-------------------|
B|------12----15p12h15p12h15p12h15p12|--12-------------------------|---12b-12b---------|
G|14b16------------------------------|12-----14br16p12-------------|---12b-12b---------|
D|-----------------------------------|-----------------14-14-14~~--|14---------12h14~~~|
A|-----------------------------------|-----------------------------|-------------------|
E|-----------------------------------|-----------------------------|-------------------|

                     Emin           Amin         Emin                   Emin     Amin               Emin
                     Sun turns back at the sight of you                 And your evil it clouds the air
E|------------------|----------------------------------|---------------|
B|------------------|----------------------------------|12b-12b--------|
G|------------------|----------------------------------|12b-12b--------|
D|2--4--5--5/7-7/9-7|----------------------------------|--------12h14~~|
A|------------------|----------------------------------|---------------|
E|------------------|----------------------------------|---------------|

                       Emin D                      Amin   Emin             Emin      D                Amin
                       You, you just laugh at what you do                  Hey, hey, hey, hum, no you dont care
E|--------------------|----------------------------------|----------------|
B|12b-12b-----15b17~~~|----------------------------------|12b-12b---------|
G|12b-12b-------------|----------------------------------|12b-12b---------|
D|--------14----------|----------------------------------|--------12h14~~~|
A|--------------------|----------------------------------|----------------|
E|--------------------|----------------------------------|----------------|

  Emin
                      Hey, you dont care, baby
E|-------------------|-------------------------|-----------------------|------|
B|12b-12b----15b17~~~|----------12b-12b-12b-12b|---12b----12b----12b---|12\---|
G|12b-12b------------|----------12b-12b-12b-12b|---12b----12b----12b---|12\---|
D|--------14---------|-------------------------|14-----14-----14-----14|------|
A|-------------------|-------------------------|-----------------------|------|
E|-------------------|-------------------------|-----------------------|-----0|

Solo (all Emin)

E|--------|---------|-----------|---------|-----------|---------|-----------|---------|-----------|---------|
B|--------|---------|-----------|---------|-----------|---------|-----------|---------|-----------|---------|
G|--------|---------|-----------|---------|-----------|---------|-----------|---------|-----------|---------|
D|----2~~~|---------|-------2~~~|---------|-------2~~~|---------|-------2~~~|---------|-------2~~~|---------|
A|--------|---------|-----------|---------|-----------|---------|-----------|---------|-----------|---------|
E|3-------|0---3b--0|0--3-------|0---3b--0|0--3-------|0---3b--0|0--3-------|0---3b--0|0--3-------|0---3b--0|


E|----------------------|12~------12~-------12-------------------|------12----15-------------------------|
B|------12b-12b----12h15|-----15-------15------15-12-------------|12-15----15----15b17~~--12-------------|
G|------12b-12b---------|----------------------------14br16p12---|---------------------------14br16p12---|
D|--------------14------|--------------------------------------14|-------------------------------------14|
A|----------------------|----------------------------------------|---------------------------------------|
E|----------------------|----------------------------------------|---------------------------------------|

                                                                                   Rake
E|------14p12-12----14p12----14p12---|14p12----14p12----14p12-12-12----12-14----12|----12------------------|
B|12-15----------15-------15-------15|------15-------15-------------15-------15---|--12---15p12h15p12h15p12|
G|-----------------------------------|--------------------------------------------|12----------------------|
D|-----------------------------------|--------------------------------------------|------------------------|
A|-----------------------------------|--------------------------------------------|------------------------|
E|-----------------------------------|--------------------------------------------|------------------------|


E|17b19-15----17b19-17pb19-17pbr19----15~---|----20b22-20b22|20b22-20b22-20b22------|
B|---------17----------------------17-----17|17-------------|------------------20-20|
G|------------------------------------------|---------------|-----------------------|
D|------------------------------------------|---------------|-----------------------|
A|------------------------------------------|---------------|-----------------------|
E|------------------------------------------|---------------|-----------------------|


E|-----------------------|---------12----------------12------|---------12-----------------------|
B|20p19p17-19----17-15-12|------12----15p12-------12----15p12|------12----15p12-----------------|
G|------------19---------|14b16-------------14b16------------|14b16-------------14br16p12----12~|
D|-----------------------|-----------------------------------|----------------------------14----|
A|-----------------------|-----------------------------------|----------------------------------|
E|-----------------------|-----------------------------------|----------------------------------|


E|------12----------12-------12|------12-------12----------------|---------12----------12|
B|15b17----12-15b17----15b17---|15b17----15b17-------------------|15b17~~-----15b17~~----|
G|-----------------------------|------------------14br16p12----12|-----------------------|
D|-----------------------------|----------------------------14---|-----------------------|
A|-----------------------------|---------------------------------|-----------------------|
E|-----------------------------|---------------------------------|-----------------------|

E|--------12--------12---|------12-15p12-15p12-15p14p12-14----12-----|---------12-----------------------------|
B|15b17~~-----15b17----12|15b17----------------------------15---15-12|------12----15p12-----------------------|
G|-----------------------|-------------------------------------------|14b16-------------14br16-12-14br16p12---|
D|-----------------------|-------------------------------------------|--------------------------------------14|
A|-----------------------|-------------------------------------------|----------------------------------------|
E|-----------------------|-------------------------------------------|----------------------------------------|
                                                                                
E|----------------------|----------------|---------------|------------------|
B|-------12b-12b--------|----------------|12b-12b--------|------------------|
G|-------12b-12b--------|2/4-3-2---------|12b-12b--------|------------------|
D|14--14---------12h14~~|--------5-4-3-2\|--------12h14~~|2--4--5--5/7-7/9-7|
A|----------------------|----------------|---------------|------------------|
E|----------------------|----------------|---------------|------------------|

  Emin           Amin               Emin                        Emin    Amin           Emin
  Your feelings smashed, now you're leaving                     To find someone who'll dare
E|-----------------------------------------|-------------------|
B|-----------------------------------------|12b-12b-----15b17~~|
G|-----------------------------------------|12b-12b------------|
D|-----------------------------------------|--------14---------|
A|-----------------------------------------|-------------------|
E|-----------------------------------------|-------------------|

                       Emin              D     Amin          Emin
                       To change all the wrong like you done to me
E|--------------------|-------------------------------------------|----------------|
B|12b-12b-------------|-------------------------------------------|12b-12b---------|
G|12b-12b----14br16p12|-------------------------------------------|12b-12b---------|
D|--------14----------|-------------------------------------------|--------12h14~~~|
A|--------------------|-------------------------------------------|----------------|
E|--------------------|-------------------------------------------|----------------|

  Emin           D                Amin Emin     
  Hey, hey, hey, no no, you don't care                         Hey, hey, hey, you dont care
E|------------------------------------|-----------------------|---------------------------------|
B|------------------------------------|12b-12b----------------|15b17~~~-------------------------|
G|------------------------------------|12b-12b----14br16p12---|---------------14-14br16p12------|
D|------------------------------------|--------14-----------14|----------------------------14-14|
A|------------------------------------|-----------------------|---------------------------------|
E|------------------------------------|-----------------------|---------------------------------|

E|--------------------|-----------------------------|----------------|---------12------------------------|
B|12b----12b----12b---|12b----12b----12b-12b--------|------12b-12b---|------12----15p12h15p12h15p12h15p12|
G|12b----12b----12b---|12b----12b----12b-12b--------|------12b-12b---|14b16------------------------------|
D|----14-----14-----14|----14-----14---------12h14~~|14-14---------14|-----------------------------------|
A|--------------------|-----------------------------|----------------|-----------------------------------|
E|--------------------|-----------------------------|----------------|-----------------------------------|

E|---------12---------------|------------------|17b19-17b19-17b19-17b19|17b19-17b19-17b19-17b19|
B|------12----15p12---------|---12b-12b--------|-----------------------|-----------------------|
G|14b16-------------12------|---12b-12b--------|-----------------------|-----------------------|
D|---------------------14-14|14---------12h14~~|-----------------------|-----------------------|
A|--------------------------|------------------|-----------------------|-----------------------|
E|--------------------------|------------------|-----------------------|-----------------------|

E|---17br19p15----------|---------------|----------------|14p12-14p12---------------------------------|
B|17-----------17-17-17\|---12b---------|----------------|------------14p12-14p12---------------------|
G|----------------------|---12b---------|2/4-3-2---------|---------------------------11h12p11h12p11---|
D|----------------------|14-----12h14~~~|---------5-4-3--|------------------------14----------------14|
A|----------------------|---------------|----------------|--------------------------------------------|
E|----------------------|---------------|----------------|--------------------------------------------|

E|-----------------------|0t|
B|-----------------------|0t|
G|-----------------------|0t|
D|14\12------------------|2t|
A|------14-13-12---------|2t|
E|---------------15~~~---|0t|


| /  slide up
| \  slide down
| h  hammer-on
| p  pull-off
| ~  vibrato
| +  harmonic
| x  Mute note
Добавлено: 10.09.2015
Другие материалы по этой песне:
  • Аккорды и текст

Страница создана 29.07.2012
http://primanota.ru/carlos-santana/you-just-dont-care-chords.htm
Привет, Гость.
Предлагаем пройти революционный курс по гитаре.
Подарок от PrimaNota.Ru, забирай!