PrimaNota.ru - самый крупный в мире бесплатный архив песенных текстов, аккордов, табулатур и нот


Carlos Santana - Tales Of Kilimanjaro - аккорды и текст, таба, видео

Регистрация Запомнить меня
Войти через:  Facebook Google Twitter Vk Yandex Mail.ru

Carlos Santana - Tales Of Kilimanjaro - аккорды и текст, таба, видео

Печатать
Просмотров: 197
Авторы музыки: Raul Rekow, Alan Pasqua, Armando Peraza, Carlos Santana

Tales Of Kilimanjaro
Carlos Santana
		   Song title: Tales of Kilimanjaro
Artist/Band: Santana
Album: Zebop!

Tab by: JC Rea (jcrp_21@hotmail.com)

Symbols used:

h= hammer-on
/= slide-up
\= slide-down
p= pull-off
////= tremolo picking
~~~= left hand vibrato


E-1--------------
B----3-----------
G----------------
D----------------
A----------------
E----------------
 0:12

E----1--------1------------------1--------1--3----1----
B------3--------3------------------3------3--3----3----
G-2------2-------------------2-------2----2--2----2----
D------------------------------------------------------
A------------------------------------------------------
E------------------------------------------------------
 0:16

E---7---------
B---8---------
G---9---------
D-------------
A-------------
E-------------
 0:26

E-1----1---1------1---1--------1-------------------
B---3----3---3------3---3--------3-----------------
G----------------------------------2---------------
D--------------------------------------------------
A--------------------------------------------------
E--------------------------------------------------
 0:34

E--------------------------------------------------
B--------------------------------------------------
G--------------------------------------------------
D--------------------------------------------------
A-3/5\3-5---3-5-3-5-3-5-3-5-3-5-3-5-3-5-3-5--------
E--------------------------------------------------
 0:43

E-7------------------
B-8----6h8--6--------
G-9------------------
D--------------------
A--------------------
E--------------------
 0:49

E-1---------1h3----1-------
B---3-------3--------------
G-----2--------------------
D--------------------------
A--------------------------
E--------------------------
 0:56

E-----------8~~~--------8-----------------
B-------10----------10-----10-------------
G-8/10-------------------------10~~~------
D-----------------------------------------
A-----------------------------------------
E-----------------------------------------
 1:06

E--------8-12-8~~~---------8-----------------
B----10----------------10-----10-------------
G-10------------------------------10~~~------
D--------------------------------------------
A--------------------------------------------
E--------------------------------------------
 1:15


E-10-13-12-15-13-10h12p10------12--8/10\8--------
B--------------------------14--------------10----
G------------------------------------------------
D------------------------------------------------
A------------------------------------------------
E------------------------------------------------
 1:25


E-10-8--------8----------------------------
B------10-8------10-8------10-8------------
G----------------------10--------10-7------
D------------------------------------------
A------------------------------------------
E------------------------------------------
 1:31

E----------------------------------------------------------------------
B-8--------------------------------------------------------------------
G---10-------7-10-7-------7--------------------------------------------
D--------10---------10-7----10-7-----7-10-7--------------5/7-----------
A--------------------------------10----------10--8///------------------
E----------------------------------------------------------------------


E------------------------------
B------6-------4/5-------------
G-5h7-----7-5-------5-5/7------
D------------------------------
A------------------------------
E------------------------------
 1:40

E---------------------------
B------6-------4/5----------
G-5h7-----7-5-------5-5/7---
D---------------------------
A---------------------------
E---------------------------


E-----------------------------
B------6-------4/5------------
G-5h7-----7-5-------5-5/7-----
D-----------------------------
A-----------------------------
E-----------------------------


E-----------------------------------------------
B------6-------4/5----5/6\5---------------------
G-5/7-----7-5-------5--------7~~~----5p4p5p4----
D-----------------------------------------------
A-----------------------------------------------
E-----------------------------------------------


E-1------1------1h3-1--1---1--------
B---3------3----3--------3---3------
G-----2------2----------------------
D-----------------------------------
A-----------------------------------
E-----------------------------------
 2:03

E-1------1h3--1--------
B---3----3----3--------
G-----2----------------
D----------------------
A----------------------
E----------------------


E------------------------------------------
B------------------------------------------
G------------------------------------------
D-----------7---7-7---5-5------7---7-7-----
A-5////---5---5-------3-3----5---5---------
E------------------------------------------
 2:15

E------------------------------------------
B------------------------------------------
G------------------------------------------
D-----------7---7-7---5-5------7---7-7-----
A---------5---5-------3-3----5---5---------
E------------------------------------------



E-1---1---1--------1h3---------------------
B---3---3---3------3-----------------------
G-------------2----------------------------
D------------------------------------------
A------------------------------------------
E------------------------------------------
  2:32

E------------------------------------------
B------------------------------------------
G------------------------------------------
D-----0-0-0------0-0-0-------0--------0----
A-1/3--------1/3---------1/3-----1/3-------
E------------------------------------------
 2:37

E-1-----1-------1h3------------------------
B---3-----3-----3--------------------------
G-----2-----2------------------------------
D------------------------------------------
A------------------------------------------
E------------------------------------------
 2:44

E-10-8-----------------------------------------
B------10-8------------------------------------
G-----------10----7-7------5-7-----------------
D--------------10--------------5-7-------------
A----------------------------------8-3-3/5-5---
E----------------------------------------------
 2:54


E-10-8-----------------------------------------
B------10-8------------------------------------
G-----------10----7-7------5-7-----------------
D--------------10--------------5-7-------------
A----------------------------------8-3-3/5-3---
E----------------------------------------------

E-1------1--------1-3-------
B---3------3------3---------
G------------2--------------
D---------------------------
A---------------------------
E---------------------------
 3:03...End

Comments: jcrp_21@hotmail.com     
Добавлено: 29.08.2013
Другие материалы по этой песне:
  • Аккорды и текст

Страница создана 21.02.2012
http://primanota.ru/carlos-santana/tales-of-kilimanjaro-chords.htm
Привет, Гость.
Предлагаем пройти революционный курс по гитаре.
Подарок от PrimaNota.Ru, забирай!