PrimaNota.ru - самый крупный в мире бесплатный архив песенных текстов, аккордов, табулатур и нот


Carlos Santana - Stone Flower - аккорды и текст, таба, видео

Регистрация Запомнить меня
Войти через:  Facebook Google Twitter Vk Yandex Mail.ru

Carlos Santana - Stone Flower - аккорды и текст, таба, видео

Печатать
Просмотров: 197
Авторы музыки: Antônio Carlos Jobim
Авторы текста: Michael Shrieve, Carlos Santana
Stone Flower
Carlos Santana
Song Title: Stone Flower
Artist/Band: Santana
Album: Caravanserai

Tab by JC Rea(jcrp_21@hotmail.com)

Symbols:

h=hammer-on
p=pull-off
/=slide-up
()=let ring
Tr=Trill
x=Blocked string

Tuning: Standard

INTRO:
e|-8-8-8---8-8-8---6-6-----------------------8----------|
B|---------------------8---------6-8-8---6---8--8h10p8--|
G|-----------------------8-8-8-8-------------9----------|
D|------------------------------------------10----------|
A|------------------------------------------------------|
E|------------------------------------------------------|
  0:53

e|-8-8-8---8-8-8---6-6-----------------------8---------------------------|-(-8)----(-8)--|
B|---------------------8---------6-8-8---6---8---------------------------|-(-8)----(-8)--|
G|-----------------------8-8-8-8-------------9---------------------------|-(-8)----(-8)--|
D|------------------------------------------10--8h10-10-10-10p8----13p10-|-(10)----(10)--|
A|--------------------------------------------------------------10-------|-(10)----(10)--|
E|-----------------------------------------------------------------------|-(-8)----(-8)--|
  1:02                                                                     1:10    1:15 


NOTE:The notes for verse parts are played together with the lyrics; with every syllable, specifically.

1st VERSE part:
e|-6/8----10-8h10p8----------------|-------6/8-8----10-8h10p8---------------|
B|-----11-----------11-8/108------|-----8-------11-----------11---8/10-8---|
G|----------------------------9----|-7h9----------------------------------9-|
D|------------------------------12-|----------------------------------------|
A|---------------------------------|----------------------------------------|
E|---------------------------------|----------------------------------------|
  1:19

e|------------------------------------|------8-8-9------8---|
B|----------------8-------------------|-8h10-------8h11---8-|
G|-10-8h10p8----8---10-8-10-8h10p8----|---------------------|
D|-----------10--------------------10-|---------------------|
A|------------------------------------|---------------------|
E|------------------------------------|---------------------|
  1:28


2nd VERSE part: 
e|-6/8----10-8h10p8-------------|-------6/8-8----10-8h10p8-------------|
B|-----11-----------11-8/10-8---|-----8-------11-----------10-8/10-8---|
G|----------------------------9-|-7h9--------------------------------9-|
D|------------------------------|--------------------------------------|
A|------------------------------|--------------------------------------|
E|------------------------------|--------------------------------------|
  1:37

e|------------------------------------|------8-8-11-8h11p8----8------|
B|----------------8-------------------|-8h11---------------11---11-8-|
G|-10-8h10p8----8---10-8-10-8h10p8----|------------------------------|
D|-----------10--------------------10-|------------------------------|
A|------------------------------------|------------------------------|
E|------------------------------------|------------------------------|
  1:46 

3rd VERSE part:
e|--------------------------------------------------------|
B|-7---7---7-11-9-7------7---7-11-9-7---------------------|
G|---8---8----------10-8---8----------10-8-6------6---6---|
D|-------------------------------------------7------8---8-|
A|--------------------------------------------------------|
E|--------------------------------------------------------|
  2:06

e|--------------------------------------------------------|
B|-7---7---7-11-9-7------7---7-11-9-7---------------------|
G|---8---8----------10-8---8----------10-8-6------6---6---|
D|-------------------------------------------7------8---8-|
A|--------------------------------------------------------|
E|--------------------------------------------------------|
  2:15

SOLO 1:
e|-11-11-11-11-11-11-11--------------------------------------
B|--x--x--x--x--x--x--x---7-6h7p6---------7-6h7p6------------
G|--8--8--8--8--8--8--8-----------8p6-8-8---------8p6-8-8-8--
D|-----------------------------------------------------------
A|-----------------------------------------------------------
E|-----------------------------------------------------------
  2:25

  -------------------------------------4---4-4---4-4--|
  -7-6h7p6---------7-6h7p6-------7-6---4---4-4---4-4--|
  ---------8p6-8-8---------8-6-6-------5---5-5---5-5--|
  -------------------------------------6---6-6---6-6--|
  -------------------------------------6---6-6---6-6--|
  ----------------------------------------------------|

e|-12-12-12-12-12-12-12--------------------------------------
B|--x--x--x--x--x--x--x---8-7h8p7-----------8-7-8p7----------
G|--9--9--9--9--9--9--9-----------9p7-9-9-9---------9p7-9-9--
D|-----------------------------------------------------------
A|-----------------------------------------------------------
E|-----------------------------------------------------------
  2:46

  ------------7------7----------------------5-5-5---5-5--|
  -8-7h8p7------8-10---8-10-8--7h8Tr--------5-5-5---5-5--|
  ---------9--------------------------------6-6-6---6-6--|
  ------------------------------------------7-7-7---7-7--|
  ------------------------------------------7-7-7---7-7--|
  -------------------------------------------------------|

e|----10------8--------10------8---|
B|-10----10-8---8-8/10----10-8---8-|
G|---------------------------------|
D|---------------------------------|
A|---------------------------------|
E|---------------------------------|
  2:51

---ORGAN SOLO

Then, repeat VERSE PARTS

After that:

SOLO 2:
e|-11-11-11-11-11-11-11-------------------------------------
B|--x--x--x--x--x--x--x---7-6h7p6----------7-6h7p6----------
G|--8--8--8--8--8--8--8-----------8p6-8-8-8--------8p6-8-8--
D|----------------------------------------------------------
A|----------------------------------------------------------
E|----------------------------------------------------------
  4:28

  ---------11------------------------------4-4-4---4-4--|
  -7-6h7p6---------7-9-11---7-9-7-6h7Tr----4-4-4---4-4--|
  ------------8--8-------------------------5-5-5---5-5--|
  -----------------------------------------6-6-6---6-6--|
  -----------------------------------------6-6-6---6-6--|
  ------------------------------------------------------|

e|-12-12-12-12-12-12-12--------------------------------------
B|--x--x--x--x--x--x--x---8-7h8p7-----------8-7h8p7----------
G|--9--9--9--9--9--9--9-----------9p7-9-9-9---------9p7-9-9--
D|-----------------------------------------------------------
A|-----------------------------------------------------------
E|-----------------------------------------------------------
  4:46

  ------------7---10-8-7------7--------------5-5-5---5-5--|
  -8-7h8p7------8--------8-10---7h8Tr--------5-5-5---5-5--|
  ---------9---------------------------------6-6-6---6-6--|
  -------------------------------------------7-7-7---7-7--|
  -------------------------------------------7-7-7---7-7--|
  --------------------------------------------------------|

e|----10------8--------10------8---|
B|-10----10-8---8-8/10----10-8---8-|
G|---------------------------------|
D|---------------------------------|
A|---------------------------------|
E|---------------------------------|
  4:54

e|-12-12-12-12-12-12-12--------------------------------------
B|--x--x--x--x--x--x--x---8-7h8p7---------8-7h8p7------------
G|--9--9--9--9--9--9--9-----------9p7-9-9---------9p7-9-9-9--
D|-----------------------------------------------------------
A|-----------------------------------------------------------
E|-----------------------------------------------------------
  4:59

  ---------------------------7---10-7------7--------------5-5-5---5-5--|
  -8-7h8p7---------8-7h8p7-----8------8-10---7h8Tr--------5-5-5---5-5--|
  ---------9p7-9-9---------9------------------------------6-6-6---6-6--|
  --------------------------------------------------------7-7-7---7-7--|
  --------------------------------------------------------7-7-7---7-7--|
  ---------------------------------------------------------------------|


(Tabbed for guitar):
e|-17-22-17----16--------|-17-22-17----16--------|-17-22-17----16--------|
B|----------19----17-15--|----------19----17-12--|----------19----17-15--|
G|-----------------------|-----------------------|-----------------------|
D|-----------------------|-----------------------|-----------------------|
A|-----------------------|-----------------------|-----------------------|
E|-----------------------|-----------------------|-----------------------|
  5:08

After that, play this guitar chords:
e|--8--8--8----8--8--8----8--8---(10)-|
B|--8--8--8----8--8--8----8--8---(10)-|
G|--9--9--9----9--9--9----9--9---(11)-|
D|-10-10-10---10-10-10---10-10---(12)-|
A|-10-10-10---10-10-10---10-10---(12)-|
E|------------------------------------|
  5:15

Then:

(Tabbed for guitar):
e|-17-22-17----16--------|-17-22-17----16--------|-17-22-17----16--------|
B|----------19----17-15--|----------19----17-12--|----------19----17-15--|
G|-----------------------|-----------------------|-----------------------|
D|-----------------------|-----------------------|-----------------------|
A|-----------------------|-----------------------|-----------------------|
E|-----------------------|-----------------------|-----------------------|
  5:21

After that:
e|--8--8--8----8--8--8----8--8---(10)-|
B|--8--8--8----8--8--8----8--8---(10)-|
G|--9--9--9----9--9--9----9--9---(11)-|
D|-10-10-10---10-10-10---10-10---(12)-|
A|-10-10-10---10-10-10---10-10---(12)-|
E|------------------------------------|
  5:28

Then:

(Tabbed for guitar):
e|-17-22-17----16--------|-17-22-17----16--------|-17-22-17----16--------|
B|----------19----17-15--|----------19----17-12--|----------19----17-15--|
G|-----------------------|-----------------------|-----------------------|
D|-----------------------|-----------------------|-----------------------|
A|-----------------------|-----------------------|-----------------------|
E|-----------------------|-----------------------|-----------------------|
  
e|-17-22-17----16--------|-17-22-17----16--------|-17-22-17----16--------|
B|----------19----17-15--|----------19----17-12--|----------19----17-15--|
G|-----------------------|-----------------------|-----------------------|
D|-----------------------|-----------------------|-----------------------|
A|-----------------------|-----------------------|-----------------------|
E|-----------------------|-----------------------|-----------------------|

e|-17-22-17----16--------|-17-22-17----16--------|-17-22-17----16--------|
B|----------19----17-15--|----------19----17-12--|----------19----17-15--|
G|-----------------------|-----------------------|-----------------------|
D|-----------------------|-----------------------|-----------------------|
A|-----------------------|-----------------------|-----------------------|
E|-----------------------|-----------------------|-----------------------|

After that:
e|--8--8--8----8--8--8----8--8---(10)-|
B|--8--8--8----8--8--8----8--8---(10)-|
G|--9--9--9----9--9--9----9--9---(11)-|
D|-10-10-10---10-10-10---10-10---(12)-|
A|-10-10-10---10-10-10---10-10---(12)-|
E|------------------------------------|
  5:55

Then, the song ends with:
e|----10------8--------10------8--------10------8--------10------8-|
B|-10----10-8---8-8/10----10-8---8-8/10----10-8---8-8/10----10-8---|
G|-----------------------------------------------------------------|
D|-----------------------------------------------------------------|
A|-----------------------------------------------------------------|
E|-----------------------------------------------------------------|. . . END
  5:58


Comments:jcrp_21@hotmail.com
Добавлено: 07.12.2013
Другие материалы по этой песне:
  • Аккорды и текст

Страница создана 30.03.2012
http://primanota.ru/carlos-santana/stone-flower-chords.htm
Привет, Гость.
Предлагаем пройти революционный курс по гитаре.
Подарок от PrimaNota.Ru, забирай!