PrimaNota.ru - самый крупный в мире бесплатный архив песенных текстов, аккордов, табулатур и нот


Carlos Santana - Santana - Primavera - аккорды и текст, видео

Регистрация Запомнить меня
Войти через:  Facebook Google Twitter Vk Yandex Mail.ru

Carlos Santana - Santana - Primavera - аккорды и текст, видео

Печатать
Просмотров: 160
Santana - Primavera
Carlos Santana
Tablature Explanation:
h=hammer-on
p=pull-off
/=slide up or indicates rapid picking
=slide down
b=bend л
^=bend full
br, ^r=bend &release

Whew! Well this one took a while. I think its the most
tab for any song ive ever done.

Intro
-----------------------------------------------
-8-------------------8-------------------------
-----7-------------7---7-7h8p7-----------------
---------10---8-10-------------10-8-10^r^r-----
-----------------------------------------------
-----------------------------------------------

---------------------------------------8--------
-8----------------------8--10-10-11-11---10-----
-----7---8p7----------7-------------------------
------------10---8-10---------------------------
------------------------------------------------
------------------------------------------------
...la semilla
-6----------
---8-8-8----
------------
------------
------------
------------

...esta primavera
-10--------------
----8-8-8---11---
-----------------
-----------------
-----------------
-----------------

...nueva era
-------------------------10-----------------------------
-13^-13^-------13-11-13^----11-------11-----------------
-------------------------------12-12--------7-6-5-------
-------------------------------------------------8p5----
--------------------------------------------------------
--------------------------------------------------------

[--------------------------------------------------------------------
-------11---------11-----------11^--11h13-13--11h13-13--11h13-13----
--10h12--12-12-12---------10-12-------------------------------------
--------------------------------------------------------------------
--------------------------------------------------------------------
--------------------------------------------------------------------

-10//////-13^-13^----
---------------------
---------------------
---------------------
---------------------
---------------------]

...
...
...
...
...tierra negra
-----------------------
-----------------------
-----------------------
-10p8---8-8------------
-----10-----10p8h10----
-----------------------

...vuelve verde
-15-15-15-15-15-15-15-15------
------------------------------
------------------------------
------------------------------
------------------------------
-fade-in----------------------

...montanas y el de...
---------15-----15----15---15----15-15-15-15-15-15-15----
-18^-18^----18^----18^--18^--18^-15-15-15-15-15-15-15----
----------------------------------------------------------
----------------------------------------------------------
----------------------------------------------------------
----------------------------------------------------------

...la semilla
-------------------
-11h13-11----------
----------12-12----
-------------------
-------------------
-------------------

...esta primavera
-10----------------------------
----13-13--11-13p11------11----
-------------------12-12-------
-------------------------------
-------------------------------
-------------------------------

...nueva era
-13-11-10b-10------------
--------------11---------
-----------------12-12---
-------------------------
-------------------------
-------------------------

...la semilla
-10------------------------
----13-13-11-10-------11---
----------------12-12------
---------------------------
---------------------------
---------------------------

...esta primavera
----------------------
----11-10-------11----
----------12-12-------
-/12------------------
----------------------
----------------------

...nueva era
-15-15-15-15-15-------------------
-15-15-15-15-15-15p13-------------
---------------------15-12-12-12--
----------------------------------
----------------------------------
----------------------------------
...aire de
----------
----------
-8-7-5-5--
----------
----------

...nuevo universo
-------------------
-------------------
-------------------
---5-7-8-7-7-5-5---
-5-----------------
-------------------

...tierra negra
-10--------10-----------
-11--11-13----11--------
-----------------12-12--
------------------------
------------------------
------------------------

...vuelve verde
-10-11-10-11-10-11-10-11-10----
---h--p--h--p--h--p--h--p------
-------------------------------
-------------------------------
-------------------------------
-------------------------------

...montanas
-10-10-------10------------15-15----15-15-------15-15-15------------
-11-11-------11------------15-15----15-15----15-15-15-15------------
-------12-------12------17^------17^------17^------------17^r15-----
---------------------------------------------------------------17---
--------------------------------------------------------------------
--------------------------------------------------------------------

...la semilla
-13-12-11-10--------------
------------11-------11---
--------------12-12-------
--------------------------
--------------------------
--------------------------

...esta primavera
---------------------------------
-13^r-11-13-13-11h13-11--13------
---------------------------------
---------------------------------
---------------------------------
---------------------------------

...nueva era
-15---15---15-------------
-15---15---15---15--------
---17^-------17^--15------
--------------------17----
--------------------------
--------------------------

...la semilla
-15--------------
-15--------------
----12-12-12-----
-----------------
-----------------
-----------------

...Lleva nueva vida
-13p11p10----10----10--------------
----------13^---13^--11----11------
-----------------------12----------
-----------------------------------
-----------------------------------
-----------------------------------

...esta primavera
-11-10-13-11-10----10-----------------
----------------13----13^-13^-13^-----
--------------------------------------
--------------------------------------
--------------------------------------
--------------------------------------

-----------------------15----15-18-17-15-15---
-18^18^-----18^----18^----18^-----------------
----------------------------------------------
----------------------------------------------
----------------------------------------------
----------------------------------------------

[-18p15--15-------------------------------------------
------18---------------------------------------------
----------17^-17p15---15-17-17^-15-17^--17p15--------
-------------------17------------------------17------
-----------------------------------------------------
-----------------------------------------------------

-20^-18-20-----18-------------18p17p15-18p17p15-18p17p15-18p17p15-
------------20-----17-20-----------------------------------------
------------------------------------------------------------------
------------------------------------------------------------------
------------------------------------------------------------------
------------------------------------------------------------------


-18p17p15-18p17p15-18p17p15-18^///////18^r-15h18p15----15-----15---------
----------------------------------------------------18^-----15--18p15----
---------------------------------------------------------------------17^-
-------------------------------------------------------------------------
-------------------------------------------------------------------------
-------------------------------------------------------------------------

-----------------------------------------
-----------------15-------------15-------
-17-15----15-17^----17^r-15-------15-----
-------17-------------------17-------17--
-----------------------------------------
-----------------------------------------

----------------------------------15---15---------------------------
-15-15-17--15-15-17-15-15-17------15---15-----15/////17/////18/////-
-15-15-17--15-15-17-15-15-17-17^----17^---17^-15/////17/////--------
--------------------------------------------------------------------
--------------------------------------------------------------------
--------------------------------------------------------------------

-------------------
-------------------
-12//14//15//17----
-------------------
-------------------
-------------------

-----------------------------------------------10-13p10--10-----------
-13^----13^-13^-13^-13^-13^-13^--13-13-13-11-13^-------13--13^13p11---
-------------------------------------------------------------------12-
----------------------------------------------------------------------
----------------------------------------------------------------------
----------------------------------------------------------------------

---18-20-18-20-20-18-20-20-18-20-20-18-20-20-18-20-18----20^//////////-
-20--------------------------------------------------------------------
-----------------------------------------------------------------------
-----------------------------------------------------------------------
-----------------------------------------------------------------------
-----------------------------------------------------------------------

-/--/--/------3///-----------
-----------113///-----------
-----------------------------
-----------------------------
-----------------------------
-----------------------------]

...tierra negra
----------------------------
----------------------------
----------------------------
-10--8-10-10--10-8----------
-------------------10-10----
----------------------------

...vuelve verde
-------------------------------------------------
-------------------------------------------------
-15--14--12-------12-----------------------------
------------15-12----15-12h15p12--12-------------
--------------------------------15---15p13-------
-------------------------------------------15----

...montanas
--------------------
-11-10h11p10--------
-------------12-12--
--------------------
--------------------
--------------------

...bello jardin
-13^-13^-13^-13^----------
-----------------11------
--------------------------
--------------------------
--------------------------
--------------------------

...la semilla
----------------
----------------
----------------
-10^r8-----8----
-------10-------
----------------

...Lleva nueva vida
-------------------------
-------------------------
-7-6-5-7p5---7p5---------
----------8p5---8p5-5-5--
-------------------------
-------------------------

...esta primavera
-15----------------------------
-15-15-------------------------
-------17-15-17p15-------15----
-------------------17-17-------
-------------------------------
-------------------------------

...nueva era
--------------------------------
----------------13-11-----------
----------10-12-------12-12-----
-10-11-12-----------------------
--------------------------------
--------------------------------

...la semilla
-----15-15-18----
-/17-------------
-----------------
-----------------
-----------------
-----------------

...Lleva nueva vida
-18^--------------18^--18^--18-15h18p15--18-------15-15---
---------------------------------------15-------17--------
----------------------------------------------------------
----------------------------------------------------------
----------------------------------------------------------
----------------------------------------------------------

[---18---15--------15-----------------------------------------------
-17---17--------18--------------15////////---15/////////---15/////-
--------------------17^r15---17^----------17^-----------17^--------
--------------------------17---------------------------------------
-------------------------------------------------------------------
-------------------------------------------------------------------

-------17-18-17-15-----15-15-------15-----18^r-15-15--------------------------
-15-15-----------------------15h17--------------------------------------------
----------------------------------------------------------17^17-15-17--15-----
------------------------------------------------------------------------------
------------------------------------------------------------------------------
------------------------------------------------------------------------------

----17-18-17-15-------15-------15-----18^////18^/////18^r-
-15----------------------15-17----------------------------
----------------------------------------------------------
----------------------------------------------------------
----------------------------------------------------------
----------------------------------------------------------

---15--15------15--------------
-18--18------15--18p15---------
---------17^----------15-------
------------------------17-----
-------------------------------
-------------------------------

--17-18-17-15-15------------15-----18^r-15------------------------------------
----------------------15-17------------------18p15----15------15--------------
--------------------------------------------------17^---15------18p17p15------
----------------------------------------------------------17------------17----
------------------------------------------------------------------------------
------------------------------------------------------------------------------

----15-17-18-17-15------------------------18^r-15-15-----
-----------------------18-18-15h17-15--------------------
-17^-----------------------------------------------------
---------------------------------------------------------
---------------------------------------------------------
---------------------------------------------------------

-15-----------------------17-18-17-15-----------------------------------------
----15-----------15-15-15-----------------18ph20p18--17h18p17--15h17p15----15-
-------17-15-17^--------------------------------------------------------17----
------------------------------------------------------------------------------
------------------------------------------------------------------------------
------------------------------------------------------------------------------

--------------------------------------------------------15----15-15-----15----
------------------------18p15---15///---15///////////------18^------18^-------
-18p17p15---17p15------------17^-----17^-------------17^----------------------
---------17------17----------------------------------------------------------
------------------------------------------------------------------------------
------------------------------------------------------------------------------

------18p15---------------------------------------------------------------
-18^--------18p15--15----------15-----------------------------------------
-----------------17--17p15-----15--------15-14----------------------------
--------------------------17------17-17--------17p15----------------------
----------------------------------------------------17p15-----15^----15---
---------------------------------------------------------15h18----18------

------------------------10--------17-18-17-15---20^20^--20^20^--20^20^--20^-
-/10-11-10--------11-13----13-----------------------------------------------
-----------12---------------------------------------------------------------
----------------------------------------------------------------------------
----------------------------------------------------------------------------
----------------------------------------------------------------------------

-20^-20^-20^-20^---20^----18p15-15-15-------------------------------
-----------------------------------------17-17-16-16-15-15-14-14-14-
--------------------------------------------------------------------
--------------------------------------------------------------------
--------------------------------------------------------------------
--------------------------------------------------------------------

-17-18-17-15-----15-------15-----18^r-15-15------------------------------
--------------------15-17-----------------------13brbr--13brbr-11-13brbr-
-------------------------------------------------------------------------
-------------------------------------------------------------------------
-------------------------------------------------------------------------
-------------------------------------------------------------------------

----------------------------------------------------------------
-11-13-11h13p11--13p11p10--11p10-------------6----8-8-11---8-11-
--------------------------------12p10-----/7---/9---------------
-------------------------------------12------------------------
----------------------------------------------------------------
----------------------------------------------------------------

-------------------
-10/////11/////13-
-------------------
-------------------
-------------------
-------------------

--------------------------------------------------------------------
-15-15---15-15---15-15--15////////////////17//////////////18-------
----------------------------------------------------------19-------
--------------------------------------------------------------------
--------------------------------------------------------------------
--------------------------------------------------------------------

-17br-15-----15-------------------------------------------------------------
----------18----17-15-15h17p15----15---------------------15//-15//----------
-------------------------------17----17-15----17p15---------------17p15-----
-------------------------------------------17------17-----------------17---
----------------------------------------------------------------------------
----------------------------------------------------------------------------

------------------15---15---15---------------
-15//----------13^--13^--13^------15^--------
-----17p15-----------------------------------
----------17---------------------------------
---------------------------------------------
---------------------------------------------]
inaudible
Добавлено: 28.09.2013
Другие материалы по этой песне:
  • Аккорды и текст

Страница создана 28.09.2013
http://primanota.ru/carlos-santana/santana-primavera-chords.htm
Привет, Гость.
Предлагаем пройти революционный курс по гитаре.
Подарок от PrimaNota.Ru, забирай!