PrimaNota.ru - самый крупный в мире бесплатный архив песенных текстов, аккордов, табулатур и нот


Carlos Santana - Santana - Oye Como Va - аккорды и текст, видео

Регистрация Запомнить меня
Войти через:  Facebook Google Twitter Vk Yandex Mail.ru

Carlos Santana - Santana - Oye Como Va - аккорды и текст, видео

Печатать
Просмотров: 152
Santana - Oye Como Va
Carlos Santana
h = hammer on    p = pull off
b = bend         r = release bend
 = slide        ~ = let ring

Intro:		[e--------7-8-10--7-------
B-10--10-----------8h10--
G------------------------ } Repeat 4X
D------------------------
A------------------------
E-(0:16)-----------------]

Spanish:  Oye como va ....me lee mo weirdo peudo sa????? (I'm a white boy)
English:  Listen to how it goes...  (someone help)

Solo 1:		[e-----------------------------------------------------------------
B-------8---8-7------------------------8---8-7--10----------------
G-----9---9------7----5h7-7p5--------9---9------------------------
D-7---------------------------7--7--------------------------------
A-----------------------------------------------------------------
E-(0:57)------------------------(1:01)----------------------------

e-----------------------------------------------------------------
B-------8---8-7----------------------8-10--8-7--10   b   13-------
G-----9---9------7--5h7-7p5--------9------------(slow bend)-------
D-7-------------------------7---10--------------------------------
A-----------------------------------------------------------------
E-(1:05)----------------------(1:08)------------------------------

e-8-8-5-5-8-5--8--5----5------------8-8-5-5-8-5---5---------------
B--------------------7-------------------------/7-----------------
G------------------------5h7-7p5---------------------7b8-5--------
D--------------------------------7--------------------------------
A-----------------------------------------------------------------
E-(1:12)--------------------------(1:16)--------------------------

e-8-8-5-5-8-5--8--5----5------------8-8-5-5-8-5---5~/12-----------
B--------------------7--------------------------7-----------------
G------------------------5h7-5------------------------------------
D------------------------------7p6--------------------------------
A-----------------------------------------------------------------
E-(1:19)--------------------------(1:23)--------------------------

e-8-5--8-5--8-5--8-5--8-5--8-5--8-5--8-5--------------------------
B-----------------------------------------------------------------
G-----------------------------------------5h7---5h7-7p5-----------
D-------------------------------------------------------7---------
A-----------------------------------------------------------------
E-(1:27)----------------------------------------------------------

e-----------------------------------------------------------------
B---------5---5-7---------------------5---5-7---------------------
G-5-555-5---5-----------------5-555-5---5-------------------------
D-(weird)---------4--5--6--7-------------------4--5--6--7---------
A-----------------------------------------------------------------
E-(1:34)----------------------(1:38)------------------------------

e-----------------------------------------------------------------
B---------5---5-7-------------------------------------------------
G-5-555-5---5-----------------------------------------------------
D------------------4--5--6--7-------------------------------------
A-----------------------------------------------------------------
E-(1:42)----------------------------------------------------------]
mostly keyboard and other junk here. I am not good with
chords so if someone could fill in this blank I would appreciate it.

Solo 2:		[e--5/12---8-8-5-5-8-5--8--5----5-------------8-8-5-5-8-5----------
B----------------------------7---------------------------7h10-----
G--------------------------------5h7-7p5--------------------------
D----------------------------------------7------------------------
A-----------------------------------------------------------------
E-(3:20)-------------------------------------(3:26)---------------

e-8-8-5-5-8-5--8--5----5------------8-8-5-5-8-5----5~/12----------
B--------------------7--------------------------/7----------------
G------------------------5h7-7p5----------------------------------
D--------------------------------7--------------------------------
A-----------------------------------------------------------------
E-(3:29)----------------------------(3:33)------------------------

e-17b18r17b18r17-12-/14--17---------------------------------------
B---------------------------15------------------------------------
G--------------------------------12b14---12-b14---12-b14---12-b14-
D-----------------------------------------------------------------
A-----------------------------------------------------------------
E-(3:37)------------------------(3:40)----------------------------

e-----------------------------------------------------------------
B-----------10----------------------------------------------------
G-12-b14-12----12-------------12-----------------------12/13------
D-----------------12-10----10-12-10----12/13---12/13---12/13------
A-----------------------12----------12----------------------------
E-(3:43)----------------------------------------------------------

e-----------------------------------------------------------------
B-----------------------------------------------------------------
G----------------12-----------------------------------------------
D-12/13-10----10-12-10---------10/12-12p10-------10-12-12p10-10-10
A----------12----------12--/12-10/12-12p10-12p10-10-12-12p10-10-10
E-(3:48)-----------------------(3:51)------12p10------------------

e-8-5--8-5--8-5--/12-5--8-5-85--8-5--88-5--8-5--8-5--8-5-8-5-----
B-----------------------------------------------------------------
G-----------------------------------------------------------------
D-----------------------------------------------------------------
A-----------------------------------------------------------------
E-(3:55)----------------------------------------------------------

e-8p5-8-8p5-8-5-8-5-----------------------------------------------
B-----------------------------------------------------------------
G-----------------------------------------------------------------
D-----------------------------------------------------------------
A-----------------------------------------------------------------
E-(4:03)----------------------------------------------------------]

I don't see too many Santana tabs so this should help.

-

Okay, for those who can't figure out the lyrics to
Oye Como Va by Santana, here they are with an english
translation too!!

Oye Como Va				Hey How's it going
Mi ritmo				My rythm
Bueno pa gosar			It is fun to dance
Dudar					No doubt
Oh I forgot to say that it is a wierd english
translation. It is like if you tell a joke in
spanish and then tell the english translation it is
not funny. So the way for it to make sense to those
who "No speka spanishio" it would be:
Hey how's it going
There is no doubt that my rythm is fun to dance.
Добавлено: 16.08.2013
Другие материалы по этой песне:
  • Аккорды и текст

Страница создана 16.08.2013
http://primanota.ru/carlos-santana/santana-oye-como-va-chords.htm
Привет, Гость.
Предлагаем пройти революционный курс по гитаре.
Подарок от PrimaNota.Ru, забирай!