PrimaNota.ru - самый крупный в мире бесплатный архив песенных текстов, аккордов, табулатур и нот


Carlos Santana - Santana - Love of my life - аккорды и текст, видео

Регистрация Запомнить меня
Войти через:  Facebook Google Twitter Vk Yandex Mail.ru

Carlos Santana - Santana - Love of my life - аккорды и текст, видео

Печатать
Просмотров: 153
Santana - Love of my life
Carlos Santana
h=hammer on
p=pull-off
/=slide up(or fast pick)
=slide down
^=bend full
b=bend half(rarely used)
^r or br=bend and release

here it is the whole song right to the end. I can say that
it is quite accurate all the way through. The only problem
you may have is during the last 2 minutes, where there are no
lyrics for reference points. Its divided into sections fairly
clearly, but if you get lost, try listening for the really
high bends to get back on track.

Intro
[-------------------------------------------------------------------
------------------------------6------------------------------------
--------------------------------8----------5-/5----8-7------5^r----
--5-7-8----10^r-7----5-7-8--------7----7-8-------------8--------5--
-------------------------------------------------------------------
-------------------------------------------------------------------

------------------
------------------
------------------
--5-5-5-4-5-7-/7--
------------------
------------------]

...wanna be
[------------------------
--10-11^--11^r----------
---------------12-12----
------------------------
------------------------
------------------------]

...wanna see
[--------10-13-11-10-------------
--11-13-------------13-13^r^----
--------------------------------
--------------------------------
--------------------------------
--------------------------------]

...my dream
[----------------10-----------
--13^-13-11-13^----11--------
----------------------12-12--
-----------------------------
-----------------------------
-----------------------------]

...to me
[----------------------------------------------------
----------------------------------------------------
------5-/5----8-7------5^r--------------------------
--7-8-------------8--------5----5-5-5-4-5-7-/7------
----------------------------------------------------
----------------------------------------------------

-------------------------------------------------------------
----------------------------------------------------6--------
------------------------------------------------------8------
--5-7-8----------------------------5-7-8----------------7----
--------------------10^r-7-----------------------------------
-------you're-the...-------of-my...------and the...----------

---------------------------------------------------------------
---------------------------------------------------------------
--------------5-/5------------8--7--8-7-------7-8-7-----7-5----
----------7-8---------------------------8-5-8-------8-------5--
---------------------------------------------------------------
-in my...----------take my...----------------------------------

---------------------------15---
-------------------------15^----
--------------------------------
--5-5-5-4-5-7-/7----------------
--------------------------------
--------------------------------]

...your mouth
[----------------10--------------
--13^-13-11-13^----11-----------
----------------------12-12-----
--------------------------------
--------------------------------
--------------------------------]

...pour out
[-----15----15-------------
--18----18----18-^--------
--------------------------
--------------------------
--------------------------
--------------------------]

...are one
[--13------------10------------
--13^-13-11-13^----11---------
----------------------12-12---
------------------------------
------------------------------
------------------------------

----------------------------------------------------------
----------------------------------------------------------
------5-/5----8-7------5^r--------------------------4---5-
--7-8-------------8--------5----5-5-5-4-5-7-----8---------
----------------------------------------------------------
------------------------------------------------eve-ry-day

----------------------------------------------------------
--6-------------------------------------------------------
------8----------7---5------------------------------------
----------7--------------5----5-5-8--7--5-/5--------------
----------------------------------------------------------
-eve-ry--night--you--a--lone...---------------------------]

interlude
[-------------------------(8^r-5)--------------------------
--------(8-10-11)----------------------(8-10-11)---6------
-----------------------------------------------------8----
--5-7-8--------------------------5-7-8-----------------7--
------------------10^r-7----------------------------------
----------------------------------------------------------

----------------------------------------------------------
----------------------------------------------------------
------5-/5----8-7------5^r--------------------------------
--7-8-------------8--------5----5-5-5-4-5-7-/7------------
----------------------------------------------------------
----------------------------------------------------------

-------------------------(8^r-5)---------------------------
--------(8-10-11)----------------------(8-10-11)---6-------
-----------------------------------------------------8-----
--5-7-8-----------10^r-7---------5-7-8-----------------7---
-----------------------------------------------------------
-----------------------------------------------------------

-----------------------------------------------------------
-----------------------------------------------------------
------5-/5----7h8--7--8-7-----8-7----5^r-------------------
--7-8---------------------8-5-----8------5---5-5-5-4-5-7---
-----------------------------------------------------------
-----------------------------------------------------------

----------------13--11----------------------------------------
--11--12--13------------10---13^-13---------------------------
-------------------------------------12---12-12-15-14-12-/12--
--------------------------------------------------------------
--------------------------------------------------------------
-eve--ry--day--eve--ry-nite--you-a--lone...-------------------]

We go dancing...
....dance, dance, dance

Outro
[--------------------------------------------------------------
--------------------------------------------------------------
--------------------------5--------5-7-8-7-8-7----------------
----7----5-4-5-8----7-6-7------7-8-------------8-5-8-----7----
--5----------------------------------------------------5------
--------------------------------------------------------------

--------------------------------------------------------------
--------------------------------------------8--10^r10-8-8-----
----------------------5--^r--5/7-7-7-8-8-10-------------------
-5h7p5-4-5-8----7-6-7-----------------------------------------
--------------------------------------------------------------
--------------------------------------------------------------

-------------------------------------------------------------
---------------------10-11-10-13-10-11-10h11-10--------------
-------------------12--------------------------12------------
--10-8-10^r------12------------------------------10--12--10--
---------------------------------------------------13--13----
-------------------------------------------------------------

----------------------------------------------
--------------10h11-10----13----10-13-11^r----
-----10h12-------------12-----------------12--
--12------------------------------------------
----------------------------------------------
----------------------------------------------

-----------------10--------
-----10-11-10-------13-13--
--12----------12-----------
---------------------------
---------------------------
---------------------------

--------13-10-----------------------------------------------
--10-13-------------10-11-10h11p10----13----10-13^r---------
-----------------12----------------12---------------12------
------------------------------------------------------------
------------------------------------------------------------
------------------------------------------------------------

--------------------------10-10-10--10h11-10h11-10h11p10h11-
-----10-11-10----11-13-13------------------------------------
--12----------12---------------------------------------------
-------------------------------------------------------------
----------------------------------@-repeat-and speed-up------
-------------------------------------------------------------

--10//11//12//12b--11p10-------------------------------------
------------------------11p10--------------------------------
-----------------------------12p10------------10-------------
----------------------------------12p10--10h12--10--10---10--
---------------------------------------13---------13--13-----
-------------------------------------------------------------

-----15-17-18--17p15-18--17p15--18p17p15-18p17p15-18p17p15-18p17p15-
--15----------------------------------------------------------------
--------------------------------------------------------------------
--------------------------------------------------------------------
--------------------------------------------------------------------
--------------------------------------------------------------------

-18p17p15-18p17p15-18p17p15-18p17p15-18^--18^--18^r--
-----------------------------------------------------
-----------------------------------------------------
-----------------------------------------------------
-----------------------------------------------------
-----------------------------------------------------

-15--15--------------------15-----------------------
---18--18p15-----------------------------------15--
-------------17^r15--15h17^--17^r15-17-17-15-17-----
-------------------17-------------------------------
----------------------------------------------------
----------------------------------------------------

-----18-20^-20^-------18-20^-20^-------18-20^--20^--20^--20^--20^--20^-
--20---------------20---------------20---------------------------------
-----------------------------------------------------------------------
-----------------------------------------------------------------------
-----------------------------------------------------------------------
-----------------------------------------------------------------------

--20-20-18-20--
----------------
----------------
----------------
----------------
----------------

--8-----------6---------------8-----10p8--8---------------------------
---8--/8--8--8-------/10-10-10----10----11-8--8--8------------6-------
---------------------------------------------------7-6-5---/7---5--5--
--------------------------------------------------------8---------8---
----------------------------------------------------------------------
----------------------------------------------------------------------

-----------------------------------8--10--10--11//12//13//-15--15--
--10----8----8-11----10h11p10-9-10---------------------------------
----------11-------------------------------------------------------
-------------------------------------------------------------------
-------------------------------------------------------------------
-------------------------------------------------------------------

-----20-20^////////////r^-20^--18--------------15-------15--
--18-----------------------------20--20-20-20-----15-16-----
------------------------------------------------------------
------------------------------------------------------------
------------------------------------------------------------
------------------------------------------------------------

---18^r15----15-------15------18p15---------15---15---
----------18-------18^--15h18^-----18p15-18^--18^-----
------------------------------------------------------
------------------------------------------------------
------------------------------------------------------
------------------------------------------------------

-20^--18p15-15-----15---------------------------------------------------
-----------------18--18p17p16p15----------------------------------------
--------------------------------17p15--17p15----------------------------
-------------------------------------17-----17-----------15-------------
----------------------------------------------15--15--/17--15--15--15--
------------------------------------------------18--18-------18--18-----


----------------10----------8-----------------------------
--8--11--10--8------11--10-----11--10--8------------------
---------------------------------------------------10-12--
------------------------------------------10-8-/12--------
----------------------------------------------------------
----------------------------------------------------------

--10--10-10--10-10--10-10-10--------------------------------------
--11--11-11--11-11--11-11-11-13-------10br-8----------------------
--------------------------------12--------------------------------
---------------------------------------------10^r-10-8-10-8-10^r--
------------------------------------------------------------------
------------------------------------------------------------------

---------------------------------------------------
-----11----11----11---11--11----11----11-13-13-13--
-/12----12----12----12--12---12----12--------------
---------------------------------------------------
---------------------------------------------------
---------------------------------------------------

------------------------------------18-20^////////////r^-18p15--
-3////4//5////6///7//8////10//11//------------------------------
----------------------------------------------------------------
----------------------------------------------------------------
----------------------------------------------------------------
----------------------------------------------------------------

----18p15--15---18p15--15-----------------------------------------------
-18^-----18--18^-----18--18^--18^--18^--18^--18^r15---18^r15---18^r15---
------------------------------------------------------------------------
------------------------------------------------------------------------
------------------------------------------------------------------------
------------------------------------------------------------------------

-----------------------------------------------------------------------
-18^r15---------15b18--r--r--r--r--r--17-------------------------------
--------17p15----------------------------19--r--r--r--17--15p14--------
-------------17------------------------------------------------17p15---
--------------------------------------------------------------------17-
-----------------------------------------------------------------------

----15-----15-----15-----15-----15 faded-out-
-13^---13^----13^----13^----13^--------------
---------------------------------------------
---------------------------------------------
---------------------------------------------
---------------------------------------------]
Добавлено: 20.11.2013
Другие материалы по этой песне:
  • Аккорды и текст

Страница создана 20.11.2013
http://primanota.ru/carlos-santana/santana-love-of-my-life-chords.htm
Привет, Гость.
Предлагаем пройти революционный курс по гитаре.
Подарок от PrimaNota.Ru, забирай!