PrimaNota.ru - самый крупный в мире бесплатный архив песенных текстов, аккордов, табулатур и нот


Carlos Santana - Luz Amor Y Vida - таба, видео

Регистрация Запомнить меня
Войти через:  Facebook Google Twitter Vk Yandex Mail.ru

Carlos Santana - Luz Amor Y Vida - таба, видео

Печатать
Просмотров: 650
Авторы музыки: Carlos Santana

Intro
e|---------------------12/-17/19/17----17.--12.-15..--|
B|------------10-12-13--------------20----------------|
G|----------9-----------------------------------------|
D|---7-9-10-------------------------------------------|
A|-7--------------------------------------------------|
E|----------------------------------------------------|

            |varias veces|
e|-12.-13-15-13-12-13-15---13-12-----12---------------------------|
B|------------------------------15-13--15-13-12-15-13-12----------|
G|------------------------------------------------------14-etc..--|
D|----------------------------------------------------------------|
A|----------------------------------------------------------------|
E|----------------------------------------------------------------|

e|-----------------------------------7-8-7-10-8-12/13.--|
B|------------------------------8-10--------------------|
G|-----------------9.----7-9-10-------------------------|
D|-9-9----9-9----9--------------------------------------|
A|-----11-----11----------------------------------------|
E|------------------------------------------------------|

e|-12-10--12-10-----10-----------------------12-10-----------------|
B|------13-----13-12--13-12-13-12-13-12-10.--------13-12/13/12-10--|
G|-----------------------------------------------------------------|
D|-----------------------------------------------------------------|
A|-----------------------------------------------------------------|
E|-----------------------------------------------------------------|

e|-----------------------------------------|
B|----10-12-13-12-10----10---------12-10.--|
G|-13----------------13----13-9.-----------|
D|-----------------------------------------|
A|-----------------------------------------|
E|-----------------------------------------|

  |-------------------------------Rápido---------------------------------|
e|-12-10.----------------------------------------------------------------|
B|-------13-12-10-13-12-10--12-10-----10---------------------------------|
G|------------------------12-----12-10--12-10-9-------------9/10/9--9.---|
D|---------------------------------------------12-10-9-10-12------12-----|
A|-----------------------------------------------------------------------|
E|-----------------------------------------------------------------------|

e|---------------------------12.--|
B|---------------12-12----12------|
G|---------------------13---------|
D|-9-9-9---9-9--------------------|
A|------11------------------------|
E|--------------------------------|

Intermedio (x4) Am – E
e|----------------------|
B|----------------------|
G|-5/7.-5---------------|
D|--------7.--6/7.-6----|
A|-------------------7--|
E|----------------------|

Canción
e|------------------------------------------------------|
B|------------------------------------------------------|
G|-7/9-7/9-7/9----7-7----7/9-7.-7-7----7/9-7-5/7-5-4----|
D|-------------10-----10------------10---------------7--|
A|------------------------------------------------------|
E|------------------------------------------------------|

e|--------------------------------------------------------8-----|
B|-10-------------------------------------------------------10--|
G|----7/9-7/9----7-7----7/9-7.-7-7----7/9-7-5/7-5-4------9------|
D|------------10-----10------------10---------------7-----------|
A|--------------------------------------------------------------|
E|--------------------------------------------------------------|

e|--------------------------8/10-8.----------------------------|
B|-8/10----------------8/10---------8/10-----------------------|
G|------7/9-------5/7.-------------------7----7----7/9-7----7--|
D|----------10.-7--------------------------10---10-------10----|
A|-------------------------------------------------------------|
E|-------------------------------------------------------------|

e|------8----------------------------8/10-8.------------------------|
B|-8-10---10-10.----------------8/10---------10---------------------|
G|---------------------7----7.------------------7------7/9-7----7.--|
D|---------------10.-7---10-----------------------10-7-------10-----|
A|------------------------------------------------------------------|
E|------------------------------------------------------------------|

Intermedio (x2)
e|----------------------|
B|----------------------|
G|-5/7.-5---------------|
D|--------7.--6/7.-6----|
A|-------------------7--|
E|----------------------|

e|---------------------------------------------------------8-----|
B|-----------------------------------------------------------10--|
G|-7/9-7/9-7/9----7-7----7/9-7.-7-7----7/9-7-5/7-5-4-----9-------|
D|-------------10-----10------------10---------------7-----------|
A|---------------------------------------------------------------|
E|---------------------------------------------------------------|

e|-----------------------------------------------------------8-----|
B|-10----------------------------------------------------------10--|
G|----7/9-7/9----7-7----7/9-7.-----------7/9-7-5/7-5-4------9------|
D|------------10-----10--------7-10-10-7----------------7----------|
A|-----------------------------------------------------------------|
E|-----------------------------------------------------------------|

e|---------------------8/10-8.------------------------8---------|
B|-8/10-----------8/10---------10----------------8/10---10-10.--|
G|------7------7.-----------------7------7/9-7.-----------------|
D|--------10-7----------------------10-7------------------------|
A|--------------------------------------------------------------|
E|--------------------------------------------------------------|

e|---------------------------8/10-8.---------------------------------|
B|----------------------8/10--------10/------------------------------|
G|-9/-------7/9-7----7------------------7-------7----7.--7/9-7-------|
D|----10.-7-------10----------------------10.-7---10-----------10-7--|
A|-------------------------------------------------------------------|
E|-------------------------------------------------------------------|

(Am – G – F – E)
e|--------------------------------------------------|
B|------------8.------------------------------------|
G|-9-9-10-9-7---------------7------7/9-7/9.-7-------|
D|------------------7-10-10---10-9------------10-7--|
A|---------------10---------------------------------|
E|--------------------------------------------------|

e|-------------------------------------------------------|
B|------------8/10-8.------------------------------------|
G|-9-9-10-9-7--------------------7------7/9-7/9.-7-------|
D|-----------------------7-10-10---10-9------------10-7--|
A|--------------------10---------------------------------|
E|-------------------------------------------------------|

Intermedio (x4) Am - E
e|----------------------|
B|----------------------|
G|-5/7.-5---------------|
D|--------7.--6/7.-6----|
A|-------------------7--|
E|----------------------|

e|------8------10/12-12.----15/<17>-<17>-<17>-<17>-<17>.--|
B|-8/10---10..-----------17-------------------------------|
G|--------------------------------------------------------|
D|--------------------------------------------------------|
A|--------------------------------------------------------|
E|--------------------------------------------------------|

e|--------------------------------------------------------------|
B|-<16>/<15>-<13>-<15>-<16>/<15>-<15>-<13>----------------------|
G|-----------------------------------------13.-7----7/8/7----7--|
D|-----------------------------------------------10-------10----|
A|--------------------------------------------------------------|
E|--------------------------------------------------------------|

  |-------------Rápido-----------------------------|
e|---15--15--15--15--17--17--17--17.---------------|
B|-15--15--15--15--15--15--15--15----etc..-etc..---|
G|-------------------------------------------------|
D|-------------------------------------------------|
A|-------------------------------------------------|
E|-------------------------------------------------|

Luego regresa... (03:34)

e|------------------------8---------------------------|
B|-8/10--------------8/10---10-10.--------------------|
G|------9-------5/7.---------------9-------9-7----7.--|
D|--------10.-7----------------------10.-7-----10-----|
A|----------------------------------------------------|
E|----------------------------------------------------|

e|----------------------------8-12-8---------------------------------------|
B|-8/10------------------8-10--------10.---------------------10------------|
G|------9-------5/7-5-7.----------------9-------7/9-7----7.-----7/9-7------|
D|--------10.-7---------------------------10.-7-------10-------------10-7--|
A|-------------------------------------------------------------------------|
E|-------------------------------------------------------------------------|

e|----------------------------------------------------------------|
B|------------8.-----------------------------------------8/10-8.--|
G|-9-9-10-9-7----------------7------7/9-7/9.--9-9-10-9-7----------|
D|-------------------7-10-10---10-9-------------------------------|
A|----------------10----------------------------------------------|
E|----------------------------------------------------------------|

e|----------------------------------------|
B|----------------------------------------|
G|------------7------7/9-7/9.---7--7------|
D|----7-10-10---10-9-------------10-10-7--|
A|-10-------------------------------------|
E|----------------------------------------|

Cambia de ritmo

e|------------------------------------------------------------|
B|----------------------------------10------------------------|
G|------7.----7----9-7.--7.----7----9--7--------7.----7----9--|
D|-7-10----10---10----------10---10------10-7------10---10----|
A|------------------------------------------------------------|
E|------------------------------------------------------------|

  |-----------Rápido-----------------------------------------|
e|-----------------------------------------------------------|
B|-10-8-10-8-------------------------------------------------|
G|-----9----9-7-9-7.----7--------------7.----7----9-7----7---|
D|-------------------10---10-7.---7-10----10---10-----10-----|
A|-----------------------------------------------------------|
E|-----------------------------------------------------------|

e|--------------------------------|
B|---10---------------------------|
G|-7-9-----9-7---------9.—etc...--|
D|------10-----10-7-10------------|
A|--------------------------------|
E|--------------------------------|

ES la primera cancion ke subo asi ke espero y les guste xD
Добавлено: 09.05.2012
Другие материалы по этой песне:
  • Аккорды и текст

Страница создана 09.05.2012
http://primanota.ru/carlos-santana/luz-amor-y-vida-chords.htm
Привет, Гость.
Предлагаем пройти революционный курс по гитаре.
Подарок от PrimaNota.Ru, забирай!