PrimaNota.ru - самый крупный в мире бесплатный архив песенных текстов, аккордов, табулатур и нот


Carlos Santana - Jungle - бас-таба, видео

Регистрация Запомнить меня
Войти через:  Facebook Google Twitter Vk Yandex Mail.ru

Carlos Santana - Jungle - бас-таба, видео

Печатать
Просмотров: 140
SANTANA  -  Jungle  basstab

TablEdited by Jan Bjorklund    jani_bjorklund@yahoo.se>
You are welcome to request for tabs!
Fingering and positions as suggested by TablEdit, please use common sense.


TablEdited by Jan.Bjorklund
Tuning : E A D G 	Time Signature: 4/4

  |       |       |       |        |       |       |       |
|--------------------------------|--------------------------------|
|------------------------0-------|------------------------0---2---|
|--------------0-----------------|--------------0-----------------|
|0-------3-----------------------|--------3-----------------------|

  |       |       |       |        |       |       |       |
|--------------------------------|--------------------------------|
|------------------------0-------|------------------------0---2---|
|--------------0-----------------|--------------0-----------------|
|0-------3-----------------------|--------3-----------------------|

  |       |       |       |        |       |       |       |
|--------------------------------|--------------------------------|
|------------------------0-------|------------------------0---2---|
|--------------0-----------------|--------------0-----------------|
|0-------3-----------------------|--------3-----------------------|

  |       |       |       |        |       |       |       |
|--------------------------------|--------------------------------|
|------------------------0-------|------------------------0---2---|
|--------------0-----------------|--------------0-----------------|
|0-------3-----------------------|--------3-----------------------|

  |       |       |       |        |       |       |       |
|--------------------------------|--------------------------------|
|------------------------0-------|------------------------0---2---|
|--------------0-----------------|--------------0-----------------|
|0-------3-----------------------|--------3-----------------------|

  |       |       |       |        |       |       |       |
|--------------------------------|--------------------------------|
|------------------------0-------|------------------------0---2---|
|--------------0-----------------|--------------0-----------------|
|0-------3-----------------------|--------3-----------------------|

  |       |       |       |        |       |       |       |
|------------------------0-------|------------------------0---2---|
|--------------0-----------------|--------------0-----------------|
|0-------3-----------------------|--------3-----------------------|
|--------------------------------|--------------------------------|

  |       |       |       |        |       |       |       |
|------------------------0-------|------------------------0---2---|
|--------------0-----------------|--------------0-----------------|
|0-------3-----------------------|--------3-----------------------|
|--------------------------------|--------------------------------|

  |       |       |       |        |       |       |       |
|--------------------------------|--------------------------------|
|--------------------------------|--------------------------------|
|--------------------------------|--------------------------------|
|--------------------------------|--------------------------------|

  |       |       |       |        |       |       |       |
|--------------------------------|--------------------------------|
|------------------------0-------|------------------------0---2---|
|--------------0-----------------|--------------0-----------------|
|0-------3-----------------------|--------3-----------------------|

  |       |       |       |        |       |       |       |
|--------------------------------|--------------------------------|
|------------------------0-------|------------------------0---2---|
|--------------0-----------------|--------------0-----------------|
|0-------3-----------------------|--------3-----------------------|

  |       |       |       |        |       |       |       |
|--------------------------------|--------------------------------|
|------------------------0-------|------------------------0---2---|
|--------------0-----------------|--------------0-----------------|
|0-------3-----------------------|--------3-----------------------|

  |       |       |       |        |       |       |       |
|--------------------------------|--------------------------------|
|------------------------0-------|------------------------0---2---|
|--------------0-----------------|--------------0-----------------|
|0-------3-----------------------|--------3-----------------------|

  |       |       |       |        |       |       |       |
|--------------------------------|--------------------------------|
|------------------------0-------|------------------------0---2---|
|--------------0-----------------|--------------0-----------------|
|0-------3-----------------------|--------3-----------------------|

  |       |       |       |        |       |       |       |
|------------------------0-------|------------------------0---2---|
|--------------0-----------------|--------------0-----------------|
|0-------3-----------------------|--------3-----------------------|
|--------------------------------|--------------------------------|

  |       |       |       |        |       |       |       |
|------------------------0-------|------------------------0---2---|
|--------------0-----------------|--------------0-----------------|
|0-------3-----------------------|--------3-----------------------|
|--------------------------------|--------------------------------|

  |       |       |       |        |       |       |       |
|--------------------------------|--------------------------------|
|--------------------------------|--------------------------------|
|--------------------------------|--------------------------------|
|--------------------------------|--------------------------------|

  |       |       |       |        |       |       |       |
|--------------------------------|--------------------------------|
|------------------------0-------|------------------------0---2---|
|--------------0-----------------|--------------0-----------------|
|0-------3-----------------------|--------3-----------------------|

  |       |       |       |        |       |       |       |
|--------------------------------|--------------------------------|
|------------------------0-------|------------------------0---2---|
|--------------0-----------------|--------------0-----------------|
|0-------3-----------------------|--------3-----------------------|

  |       |       |       |        |       |       |       |
|--------------------------------|--------------------------------|
|------------------------0-------|------------------------0---2---|
|--------------0-----------------|--------------0-----------------|
|0-------3-----------------------|--------3-----------------------|

  |       |       |       |        |       |       |       |
|--------------------------------|--------------------------------|
|------------------------0-------|------------------------0---2---|
|--------------0-----------------|--------------0-----------------|
|0-------3-----------------------|--------3-----------------------|

  |       |       |       |        |       |       |       |
|--------------------------------|--------------------------------|
|------------------------0-------|------------------------0---2---|
|--------------0-----------------|--------------0-----------------|
|0-------3-----------------------|--------3-----------------------|

  |       |       |       |        |       |       |       |
|------------------------0-------|------------------------0---2---|
|--------------0-----------------|--------------0-----------------|
|0-------3-----------------------|--------3-----------------------|
|--------------------------------|--------------------------------|

  |       |       |       |        |       |       |       |
|------------------------0-------|------------------------0---2---|
|--------------0-----------------|--------------0-----------------|
|0-------3-----------------------|--------3-----------------------|
|--------------------------------|--------------------------------|

  |       |       |       |        |       |       |       |
|--------------------------------|--------------------------------|
|------------------------2-------|------------------------1-------|
|--------0-----2-----------------|--------------1-----------------|
|2-------------------------------|1-------4-----------------------|

  |       |       |       |        |       |       |       |
|--------------------------------|--------------------------------|
|------------------------0-------|------------------------0---2---|
|--------------0-----------------|--------------0-----------------|
|0-------3-----------------------|--------3-----------------------|

  |       |       |       |        |       |       |       |
|--------------------------------|--------------------------------|
|------------------------0-------|------------------------0---2---|
|--------------0-----------------|--------------0-----------------|
|0-------3-----------------------|--------3-----------------------|

  |       |       |       |        |       |       |       |
|--------------------------------|--------------------------------|
|------------------------0-------|------------------------0---2---|
|--------------0-----------------|--------------0-----------------|
|0-------3-----------------------|--------3-----------------------|

  |       |       |       |        |       |       |       |
|--------------------------------|--------------------------------|
|------------------------0-------|------------------------0---2---|
|--------------0-----------------|--------------0-----------------|
|0-------3-----------------------|--------3-----------------------|

  |       |       |       |        |       |       |       |
|--------------------------------|--------------------------------|
|------------------------0-------|------------------------0---2---|
|--------------0-----------------|--------------0-----------------|
|0-------3-----------------------|--------3-----------------------|

  |       |       |       |        |       |       |       |
|------------------------0-------|------------------------0---2---|
|--------------0-----------------|--------------0-----------------|
|0-------3-----------------------|--------3-----------------------|
|--------------------------------|--------------------------------|

  |       |       |       |        |       |       |       |
|------------------------0-------|------------------------0---2---|
|--------------0-----------------|--------------0-----------------|
|0-------3-----------------------|--------3-----------------------|
|--------------------------------|--------------------------------|

  |       |       |       |        |       |       |       |
|--------------------------------|--------------------------------|
|------------------------2-------|------------------------1-------|
|--------0-----2-----------------|--------------1-----------------|
|2-------------------------------|1-------4-----------------------|

  |       |       |       |        |       |       |       |
|--------------------------------|--------------------------------|
|------------------------0-------|------------------------0---2---|
|--------------0-----------------|--------------0-----------------|
|0-------3-----------------------|--------3-----------------------|

  |       |       |       |        |       |       |       |
|--------------------------------|--------------------------------|
|------------------------0-------|------------------------0---2---|
|--------------0-----------------|--------------0-----------------|
|0-------3-----------------------|--------3-----------------------|

  |       |       |       |        |       |       |       |
|--------------------------------|--------------------------------|
|------------------------0-------|------------------------0---2---|
|--------------0-----------------|--------------0-----------------|
|0-------3-----------------------|--------3-----------------------|

  |       |       |       |        |       |       |       |
|--------------------------------|--------------------------------|
|------------------------0-------|------------------------0---2---|
|--------------0-----------------|--------------0-----------------|
|0-------3-----------------------|--------3-----------------------|

  |       |       |       |        |       |       |       |
|--------------------------------|--------------------------------|
|------------------------0-------|------------------------0---2---|
|--------------0-----------------|--------------0-----------------|
|0-------3-----------------------|--------3-----------------------|

  |       |       |       |        |       |       |       |
|------------------------0-------|------------------------0---2---|
|--------------0-----------------|--------------0-----------------|
|0-------3-----------------------|--------3-----------------------|
|--------------------------------|--------------------------------|

  |       |       |       |        |       |       |       |
|------------------------0-------|------------------------0---2---|
|--------------0-----------------|--------------0-----------------|
|0-------3-----------------------|--------3-----------------------|
|--------------------------------|--------------------------------|

  |       |       |       |        |       |       |       |
|--------------------------------|--------------------------------|
|------------------------2-------|------------------------1-------|
|--------0-----2-----------------|--------------1-----------------|
|2-------------------------------|1-------4-----------------------|

  |       |       |       |        |       |       |       |
|--------------------------------|--------------------------------|
|------------------------0-------|------------------------0---2---|
|--------------0-----------------|--------------0-----------------|
|0-------3-----------------------|--------3-----------------------|

  |       |       |       |        |       |       |       |
|--------------------------------|--------------------------------|
|------------------------0-------|------------------------0---2---|
|--------------0-----------------|--------------0-----------------|
|0-------3-----------------------|--------3-----------------------|

  |       |       |       |        |       |       |       |
|--------------------------------|--------------------------------|
|------------------------0-------|------------------------0---2---|
|--------------0-----------------|--------------0-----------------|
|0-------3-----------------------|--------3-----------------------|

  |       |       |       |        |       |       |       |
|--------------------------------|--------------------------------|
|------------------------0-------|------------------------0---2---|
|--------------0-----------------|--------------0-----------------|
|0-------3-----------------------|--------3-----------------------|

  |       |       |       |        |       |       |       |
|--------------------------------|--------------------------------|
|------------------------0-------|------------------------0---2---|
|--------------0-----------------|--------------0-----------------|
|0-------3-----------------------|--------3-----------------------|

  |       |       |       |        |       |       |       |
|------------------------0-------|------------------------0---2---|
|--------------0-----------------|--------------0-----------------|
|0-------3-----------------------|--------3-----------------------|
|--------------------------------|--------------------------------|

  |       |       |       |        |       |       |       |
|------------------------0-------|------------------------0---2---|
|--------------0-----------------|--------------0-----------------|
|0-------3-----------------------|--------3-----------------------|
|--------------------------------|--------------------------------|

  |       |       |       |        |       |       |       |
|--------------------------------|--------------------------------|
|--------------------------------|--------------------------------|
|--------------------------------|--------------------------------|
|--------------------------------|--------------------------------|

  |       |       |       |        |       |       |       |
|--------------------------------|--------------------------------|
|------------------------0-------|------------------------0---2---|
|--------------0-----------------|--------------0-----------------|
|0-------3-----------------------|--------3-----------------------|

  |       |       |       |        |       |       |       |
|--------------------------------|--------------------------------|
|--------------------------------|--------------------------------|
|--------------------------------|--------------------------------|
|--------------------------------|--------------------------------|

  |       |       |       |        |       |       |       |
|--------------------------------|--------------------------------|
|------------------------0-------|------------------------0---2---|
|--------------0-----------------|--------------0-----------------|
|0-------3-----------------------|--------3-----------------------|

  |       |       |       |        |       |       |       |
|--------------------------------|--------------------------------|
|------------------------0-------|------------------------0---2---|
|--------------0-----------------|--------------0-----------------|
|0-------3-----------------------|--------3-----------------------|

  |       |       |       |        |       |       |       |
|--------------------------------|--------------------------------|
|------------------------0-------|------------------------0---2---|
|--------------0-----------------|--------------0-----------------|
|0-------3-----------------------|--------3-----------------------|

  |       |       |       |        |       |       |       |
|--------------------------------|--------------------------------|
|------------------------0-------|------------------------0---2---|
|--------------0-----------------|--------------0-----------------|
|0-------3-----------------------|--------3-----------------------|

  |       |       |       |        |       |       |       |
|--------------------------------|--------------------------------|
|------------------------0-------|------------------------0---2---|
|--------------0-----------------|--------------0-----------------|
|0-------3-----------------------|--------3-----------------------|

  |       |       |       |        |       |       |       |
|--------------------------------|--------------------------------|
|------------------------0-------|------------------------0---2---|
|--------------0-----------------|--------------0-----------------|
|0-------3-----------------------|--------3-----------------------|

  |       |       |       |        |       |       |       |
|--------------------------------|--------------------------------|
|------------------------0-------|------------------------0---2---|
|--------------0-----------------|--------------0-----------------|
|0-------3-----------------------|--------3-----------------------|

  |       |       |       |        |       |       |       |
|--------------------------------|--------------------------------|
|------------------------0-------|------------------------0---2---|
|--------------0-----------------|--------------0-----------------|
|0-------3-----------------------|--------3-----------------------|

  |       |       |       |        |       |       |       |
|--------------------------------|--------------------------------|
|------------------------0-------|------------------------0---2---|
|--------------0-----------------|--------------0-----------------|
|0-------3-----------------------|--------3-----------------------|

  |       |       |       |        |       |       |       |
|--------------------------------|--------------------------------|
|------------------------0-------|--------------------------------|
|--------------0-----------------|--------------------------------|
|0-------3-----------------------|--------3-----------------------|


Created with TablEdit http://www.tabledit.com/

     
Добавлено: 22.07.2013
Другие материалы по этой песне:
  • Аккорды и текст

Страница создана 22.07.2013
http://primanota.ru/carlos-santana/jungle-chords.htm
Привет, Гость.
Предлагаем пройти революционный курс по гитаре.
Подарок от PrimaNota.Ru, забирай!