PrimaNota.ru - самый крупный в мире бесплатный архив песенных текстов, аккордов, табулатур и нот


Carlos Santana - Flor Dluna Moonflower - бас-таба, видео

Регистрация Запомнить меня
Войти через:  Facebook Google Twitter Vk Yandex Mail.ru

Carlos Santana - Flor Dluna Moonflower - бас-таба, видео

Печатать
Просмотров: 134
Уроки эстрадного вокала в Санкт-Петербурге
-----------------------------------------------------------------------------
                                          Artist - Santana
                                         ******************
                                   Song - Flor d Luna (Moonflower)  
                                  *********************************
                                         Album - Moon Flower  
                                        *********************
                                         Tabbed By - Ayreon77
                                        **********************
-----------------------------------------------------------------------------
Tuning = Standard



G|-------7------------------------------|-------7---------7-----------------------|
D|----7----7----7---------7---------7---|----7----7----7----7-------5---------5---|
A|-5---------5----5----7----7----7----7-|-5---------5------------5----5----5------|
E|------------------5---------5---------|---------------------3---------3-------3-|


G|-------7--------------------7-----|
D|----7----7-------7-------7--------|
A|-5------------7----7-5--------0-5-|
E|-----------5----------------------|


----------------------
00:25
G|-------7---------7-----------------------|-------7---------7-----------------------|
D|----7----7----7----7-------7---------7---|----7----7----7----7-------5---------5---|
A|-5---------5------------7----7----7----7-|-5---------5------------5----5----5------|
E|---------------------5---------5---------|---------------------3---------3-------3-|


G|-------7--------------------7-----|
D|----7----7-------7-------7--------|
A|-5------------7----7-5--------0-5-|
E|-----------5----------------------|


-----------------------
00:49
G|----7-|--------------5------5---------5-|-----------|----------|----------|-7--------|
D|-5----|-5---------5----5-3---------3----|-3-5-6-7---|-7--------|-7------7-|---7----7-|
A|------|----5--3----------------3-3------|---------7-|---7----7-|---7-5----|-----5----|
E|------|---------------------------------|-----------|-----5----|----------|----------|

01:03                                                                     Little run
G|-7------7-|----------|-5------5-|----5----5--------|----------|-------|-7-5-------------|
D|---7-5----|-5------5-|---5-3----|------3-----3-7---|-7------7-|-7-----|-----8-7-5-------|
A|----------|---5-3----|----------|-3--------------7-|---7------|---7---|-----------8-7-5-|
E|----------|----------|----------|------------------|-----5----|-----5-|-----------------|


------------------------
01:20
G|-------7---------7-----------------------|-------7---------7-----------------------|
D|----7----7----7----7-------7---------7---|----7----7----7----7-------5---------5---|
A|-5---------5------------7----7----7----7-|-5---------5------------5----5----5------|
E|---------------------5---------5---------|---------------------3---------3-------3-|

                        gets funky
G|-------7-------------|----------------------|------------------|--------|------------------------|
D|----7----7-------7---|----7------7-7------7-|------7-7-------7-|--------|------7-------7-------7-|
A|-5------------7----7-|-5----5-7------7-5----|-5-7-------7-5----|-5-7----|-7-5-----5-7-----7-5----|
E|-----------5---------|----------------------|------------------|------5-|------------------------|

01:56
G|-------|------------------|---------------|----------------|---------------|------------------|
D|-------|------7-------7-7-|------7--------|------7-------7-|------7--------|------7-------7-7-|
A|-5-7---|-7-5-----5-7------|-7-5-----5-7---|-7-5-----5-7----|-7-5-----5-7---|-7-5-----5-7------|
E|-----5-|------------------|-------------5-|----------------|-------------5-|------------------|

02:18
G|---------------|------------------|---------------|----------------|----------------|--------|----------|
D|------7--------|------7-------7-7-|------7--------|------7-------7-|------7-------7-|------7-|------7-7-|
A|-7-5-----5-7---|-7-5-----5-7------|-7-5-----5-7---|-7-5-----5-7----|-7-5-----5-7----|-7-5----|-5-7------|
E|-------------5-|------------------|-------------5-|----------------|----------------|--------|----------|

02:41
G|---------------|----------------|--------------------------------------------------------|
D|------7--------|------7-------7-|--------------------------------------------------------|
A|-7-5-----5-7---|-7-5-----5-7----|-7-5-5-5-5-----------5-5-5-5-----------5-5-5-5--------5-|
E|-------------5-|----------------|------------5-5-5-5-----------5-5-5-5-----------5-5-5---|


-----------------------
02:56
G|------|----------|-5------5-|----5----5-|-----------|----------|----------|-7--------|
D|-5----|-5------5-|---5-3----|------3----|-3-5-6-7---|-7--------|-7------7-|---7----7-|
A|----5-|---5-3----|----------|-3---------|---------7-|---7----7-|---7-5----|-----5----|
E|------|----------|----------|-----------|-----------|-----5----|----------|----------|

                                                                              Little run 
G|-7-------|----------|-5------5-|----5----5-|-----------|----------|-------|-7-5-------------|
D|---7-5---|-5------5-|---5-3----|------3----|-3-5-6-7---|-7--------|-7-----|-----8-7-5-------|
A|-------5-|---5-3----|----------|-3---------|---------7-|---7----7-|---7---|-----------8-7-5-|
E|---------|----------|----------|-----------|-----------|-----5----|-----5-|-----------------|


------------------------
01:20
G|-------7---------7-----------------------|-------7---------7-----------------------|
D|----7----7----7----7-------7---------7---|----7----7----7----7-------5---------5---|
A|-5---------5------------7----7----7----7-|-5---------5------------5----5----5------|
E|---------------------5---------5---------|---------------------3---------3-------3-|

                        gets funky                   
G|-------7-------------|----------------------|------------------|--------|------------------------|
D|----7----7-------7---|----7------7-7------7-|------7-7-------7-|--------|------7-------7-------7-|
A|-5------------7----7-|-5----5-7------7-5----|-5-7-------7-5----|-5-7----|-7-5-----5-7-----7-5----|
E|-----------5---------|----------------------|------------------|------5-|------------------------|

                                                         repeat and fade out...........................
G|-------|------------------|---------------|----------------|---------------|------------------|
D|-------|------7-------7-7-|------7--------|------7-------7-|------7--------|------7-------7-7-|
A|-5-7---|-7-5-----5-7------|-7-5-----5-7---|-7-5-----5-7----|-7-5-----5-7---|-7-5-----5-7------|
E|-----5-|------------------|-------------5-|----------------|-------------5-|------------------|



ENJOY................
Добавлено: 13.04.2016
Другие материалы по этой песне:

Страница создана 30.07.2012
http://primanota.ru/carlos-santana/flor-dluna-moonflower-chords.htm
Привет, Гость.
Предлагаем пройти революционный курс по гитаре.
Подарок от PrimaNota.Ru, забирай!