PrimaNota.ru - самый крупный в мире бесплатный архив песенных текстов, аккордов, табулатур и нот


Carlos Santana - Dealer - бас-таба, видео

Регистрация Запомнить меня
Войти через:  Facebook Google Twitter Vk Yandex Mail.ru

Carlos Santana - Dealer - бас-таба, видео

Печатать
Просмотров: 131
SANTANA - DEALER

TablEdited by Jan Bjorklund    jani_bjorklund@yahoo.se>
You are welcome to request for tabs!
Fingering and positions as suggested by TablEdit, please use common sense.


Tuning : E A D G 	Time Signature: 4/4

  |       |       |       |        |       |       |       |
|----------------9---12------9---|--------------------------------|
|--------------------------------|--------------------------------|
|--------------------------------|--------------------------------|
|--------------------------------|--------------------------------|

  |       |       |       |        |       |       |       |
|--------------------------------|--------------------------------|
|--------------------------------|--------------------------------|
|--------------------------------|--------------------------------|
|--------------------------------|--------------------------------|

  |       |       |       |        |       |       |       |
|8-------------------------------|--------------------------------|
|--------------------------------|2-------------------------------|
|--------------------------------|--------------------------------|
|--------------------------------|--------------------------------|

  |       |       |       |        |       |       |       |
|----------------4---------------|--------------------------------|
|--------------------------------|--------------------------------|
|--------------------------------|--------------------------------|
|--------------------------------|--------------------------------|

  |       |       |       |        |       |       |       |
|--------------------------------|--------------------------------|
|------------------------2-------|3-----3-3---3-3-3---3-3-3-------|
|--------------------------------|--------------------------------|
|--------------------------------|--------------------------------|

  |       |       |       |        |       |       |       |
|0-----0-0-------0-------------0-|--------------------------------|
|--------------------------------|3-------------3-3-------3-----3-|
|--------------------------------|--------------------------------|
|--------------------------------|--------------------------------|

  |       |       |       |        |       |       |       |
|--------------------------------|--------------------------------|
|3-------3---3-3-3---3-3-3---3-3-|------3-3---3-3-3-----3-3-------|
|--------------------------------|----------------------------3---|
|--------------------------------|--------------------------------|

  |       |       |       |        |       |       |       |
|--------------------------------|--------------------------------|
|----3-3-3---3-3-3---3-3-3---3-3-|2-------------------------------|
|--------------------------------|--------------------------------|
|--------------------------------|--------------------------------|

  |       |       |       |        |       |       |       |
|--------------------------------|--------------------------------|
|--------------------------------|3-----3-3---3-3-3---3-3-3-------|
|--------------------------------|--------------------------------|
|--------------------------------|--------------------------------|

  |       |       |       |        |       |       |       |
|0-----0-0-------0-------------0-|--------------------------------|
|--------------------------------|3-------------3-3-------3-----3-|
|--------------------------------|--------------------------------|
|--------------------------------|--------------------------------|

  |       |       |       |        |       |       |       |
|--------------------------------|--------------------------------|
|3-------3---3-3-3---3-3-3-------|------3-3---3-3-3-----3-3-------|
|--------------------------------|----------------------------3---|
|--------------------------------|--------------------------------|

  |       |       |       |        |       |       |       |
|--------------------------------|--------------------------------|
|----3-3-3---3-3-3---3-3-3---3-3-|2-------------------------------|
|--------------------------------|--------------------------------|
|--------------------------------|--------------------------------|

  |       |       |       |        |       |       |       |
|--------------------------------|------------0-----0-------------|
|--------------------------------|2-----2---------------------0---|
|--------------------------------|--------------------------------|
|--------------------------------|--------------------------------|

  |       |       |       |        |       |       |       |
|--------------------------------|--------------------------------|
|2---2-2-------------------------|2-----------2---2---------------|
|--------------------2---0---2---|--------------------------------|
|--------------------------------|--------------------------------|

  |       |       |       |        |       |       |       |
|--------------------------------|--------------------------------|
|--------2---2-------2-----------|2---2-2-2---2-2-----------------|
|--------------------------------|----------------7---------------|
|--------------------------------|--------------------------------|

  |       |       |       |        |       |       |       |
|--------------------------------|--------------------------------|
|2-------------------------------|2-------2-----------------------|
|--------------------------------|--------------------------------|
|--------------------------------|--------------------------------|

  |       |       |       |        |       |       |       |
|--------------------------------|--------------------------------|
|--------------------------------|--------------------------------|
|--------0-------0-------0---0-0-|0---0---0---0-0-0-----0-----0-0-|
|--------------------------------|--------------------------------|

  |       |       |       |        |       |       |       |
|--------------------------------|--------------------------------|
|----2-2-2-------2---2-2-2-------|2---2-2-2-------2---2-2---------|
|----------------------------2---|--------------------------------|
|--------------------------------|--------------------------------|

  |       |       |       |        |       |       |       |
|--------------------------------|--------------------------------|
|----2-2-2-------2-----2-2-------|--------------------------------|
|--------------------------------|0---------------------0-0-------|
|--------------------------------|--------------------------------|

  |       |       |       |        |       |       |       |
|--------------------------------|----------------4-------4---2---|
|--------------------------------|2---2-2-2-----------------------|
|----0-0-0-----0-0---0-0-0-----0-|--------------------------------|
|--------------------------------|--------------------------------|

  |       |       |       |        |       |       |       |
|----------------0-2-0-----------|--------------------------------|
|2---2-2---0-2-----------2---0---|2-------------------------------|
|--------------------------------|--------------------------------|
|--------------------------------|--------------------------------|

  |       |       |       |        |       |       |       |
|--------------------------------|------------------------7---9---|
|--------------------------------|--------------------------------|
|--------------------------------|--------------------------------|
|--------------------------------|--------------------------------|

  |       |       |       |        |       |       |       |
|12------12------9---------------|--------------------------------|
|--------------------------------|--------------------------------|
|--------------------------------|--------------------------------|
|--------------------------------|--------------------------------|

  |       |       |       |        |       |       |       |
|--------------------------------|--------------------3-----7-9---|
|--------------------------------|--------------------------------|
|--------------------------------|--------------------------------|
|--------------------------------|--------------------------------|

  |       |       |       |        |       |       |       |
|--------------------9---7-------|--------------------------------|
|--------------------------------|2-------------------------------|
|--------------------------------|--------------------------------|
|--------------------------------|--------------------------------|

  |       |       |       |        |       |       |       |
|--------------------------------|--------------------------------|
|--------------------------------|--------------------------------|
|--------------------------------|--------------------------------|
|--------------------------------|--------------------------------|

  |       |       |       |        |       |       |       |
|----0---4---7---4---2---4---9---|--------------------------------|
|2-------------------------------|3-----3-3---3-3-3---3-3-3-------|
|--------------------------------|--------------------------------|
|--------------------------------|--------------------------------|

  |       |       |       |        |       |       |       |
|0-----0-0-------0-------------0-|--------------------------------|
|--------------------------------|3-------------3-3-------3-----3-|
|--------------------------------|--------------------------------|
|--------------------------------|--------------------------------|

  |       |       |       |        |       |       |       |
|--------------------------------|--------------------------------|
|3-------3---3-3-3---3-3-3---3-3-|------3-3---3-3-3-----3-3-------|
|--------------------------------|----------------------------3---|
|--------------------------------|--------------------------------|

  |       |       |       |        |       |       |       |
|--------------------------------|--------------------------------|
|----3-3-3---3-3-3---3-3-3---3-3-|2-------------------------------|
|--------------------------------|--------------------------------|
|--------------------------------|--------------------------------|

  |       |       |       |        |       |       |       |
|--------------------------------|--------------------------------|
|--------------------------------|3-----3-3---3-3-3---3-3-3-------|
|--------------------------------|--------------------------------|
|--------------------------------|--------------------------------|

  |       |       |       |        |       |       |       |
|0-----0-0-------0-------------0-|--------------------------------|
|--------------------------------|3-------------3-3-------3-----3-|
|--------------------------------|--------------------------------|
|--------------------------------|--------------------------------|

  |       |       |       |        |       |       |       |
|--------------------------------|--------------------------------|
|3-------3---3-3-3---3-3-3-------|------3-3---3-3-3-----3-3-------|
|--------------------------------|----------------------------3---|
|--------------------------------|--------------------------------|

  |       |       |       |        |       |       |       |
|--------------------------------|--------------------------------|
|----3-3-3---3-3-3---3-3-3---3-3-|2-------------------------------|
|--------------------------------|--------------------------------|
|--------------------------------|--------------------------------|

  |       |       |       |        |       |       |       |
|--------------------------------|0-0-0---0-------------------2---|
|--------------------------------|------------2---0---2-----------|
|--------------------------------|--------------------------------|
|--------------------------------|--------------------------------|

  |       |       |       |        |       |       |       |
|----2---0-----------------------|------------9---------9-----9---|
|------------2-------------------|--------------------------------|
|--------------------------------|--------------------------------|
|--------------------------------|--------------------------------|

  |       |       |       |        |       |       |       |
|----------------------------0---|------------4---7-----------9---|
|2---2---2---0-2---2-0---2-------|----2---2-----------------------|
|--------------------------------|--------------------------------|
|--------------------------------|--------------------------------|

  |       |       |       |        |       |       |       |
|--------------------2---0---2---|4---7-----------9-----9---------|
|2---2---2---0-2-----------------|--------------------------------|
|--------------------------------|--------------------------------|
|--------------------------------|--------------------------------|

  |       |       |       |        |       |       |       |
|----------------7-9-7---4-------|--------------------------------|
|2-------------------------------|--------------------------------|
|--------------------------------|--------------------------------|
|--------------------------------|0-------------------------------|


Created with TablEdit http://www.tabledit.com/

     
Добавлено: 13.10.2013
Другие материалы по этой песне:
  • Аккорды и текст

Страница создана 13.10.2013
http://primanota.ru/carlos-santana/dealer-chords.htm
Привет, Гость.
Предлагаем пройти революционный курс по гитаре.
Подарок от PrimaNota.Ru, забирай!