PrimaNota.ru - самый крупный в мире бесплатный архив песенных текстов, аккордов, табулатур и нот


Carlos Paredes - Verdes Anos - таба, видео

Регистрация Запомнить меня
Войти через:  Facebook Google Twitter Vk Yandex Mail.ru

Carlos Paredes - Verdes Anos - таба, видео

Печатать
Просмотров: 121
Авторы музыки: Carlos Paredes
Авторы текста: Manuel Alegre
Verdes Anos - Carlos Paredes (1925-2004)
----------------------------------------

Transcribed by Bjoern Seifert (karmadrome@gmx.net)

This tab is transcribed from a recording by Pedro Godinho, for one guitar.
The original by the late Paredes is for the 12-String Portuguese guitar,
so this version might differ from the Original Paredes version. Listen to
Godinho's version. It's a beautiful tune and easy to play as well.


e|-7---5---3-|
B|-----------|
G|-----------|
D|-----------|
A|-----------|
E|-----------|


e|-7-----7-------7-----5-3-5---3-2-|-3---0---------------------0-2-3-|
B|-----0-------0-------------------|---------------------4-----------|
G|---0-------0-------0-------0-----|---0---0---0-2-0---2-----2-------|
D|---------------------------------|-----------------4-----4---------|
A|-7-------5-------4-------4-------|-3-------3-------2---------------|
E|---------------------------------|---------------------------------|


e|-0-------------------------0-2-3-|-0-------------------------0-2-3-|
B|-------1---1---------0---0-------|-------1-------0-----4---4-------|
G|---0-----0-----0---2---2---------|---0-------0-------2---2---------|
D|-----2-------2---1---------------|-----2---4---5---4---------------|
A|-3-------------------------------|-3-------------------------------|
E|---------------------------------|---------------------------------|


e|-7-----7-------7-----5-3-5---3-2-|-3---0-------------------------7-5-3-|
B|-----0-------0-------------------|-------1---2------4------------8-7-5-|
G|---0-------0-------0-------0-----|---0---2---0-----4-------------------|
D|---------------------------------|-----------2----4--------------------|
A|-7-------5-------4-------4-------|-3-----0---1---2---------------------|
E|---------------------------------|-------------------------------------|


e|-7-----7-7-----7-7---5-3-5---3-2-|-3---0---------------------0-2-3-|
B|-----8-------8---------0---------|---------1-------0---------0-----|
G|-0-0---0---0-------0-------0-----|---0---0-----0-------2---2-------|
D|---------------------------------|-----------2---2---1---1---------|
A|-7-------5-------4-------4-------|-3-------3-------2---------------|
E|---------------------------------|---------------------------------|


e|-0-------------------------0-2-3-|-0-------------------------0-2-3-|
B|-----1-------1---0---0---0-------|-----------1---0-----4---4-------|
G|---0---0---0---0-2-2---2---------|---0---0-----------2---2---------|
D|-----2---4---2---1---------------|-----2---4---5---4---------------|
A|-3-------3-----------------------|-3-------------------------------|
E|---------------------------------|---------------------------------|


e|-7-----7-------7-----5-3-5---3-2-|-3---0-----------------0-2-3-5---3-5-|
B|-----0-------0-------------------|-------1---2------4------------------|
G|---0-------0-------0-------0-----|---0---2---0-----4-------------------|
D|---------------------------------|-----------2----4--------------------|
A|-7-------5-------4-------4-------|-3-----0---1---2---------------------|
E|---------------------------------|-------------------------------------|


e|-3---------3-2-3-2---------0-2---|-0-------------------0-2-3-5-7-5-|
B|-------1-------------3---3-----3-|-----1---1---1---1-----------8-7-|
G|-----0---0---------2---2---------|-----2---0---2---2---------------|
D|---2-----------------------------|---2---2---2---2-----------------|
A|-3-------3-------3-------3---3---|-0-------------------------------|
E|---------------------------------|---------------------------------|


e|-3---------5---3-2-----2---0-2---|---------------------------------|
B|-------5---7---5-----3---3-----3-|-0---------------0---------0-----|
G|-----5---5---------2-------------|-----2---2---2---2---2---2---2-0-|
D|---5-------------0-----------0---|---1---1---1---1-1-1---1---------|
A|-3-------3--------------(0)------|-2---------------2---------------|
E|---------------------------------|-----------------2---------------|


e|---------------------------------|---------0-------2-------2-------|
B|-0-----0-0-----0-0---------------|-----------1---0-------4---------|
G|-----0-------0-------2-0-2---0---|-0-----------0-------2---------0-|
D|-2-2-----1-1-----0-0-------0---4-|-----2-2-----------4-------2-4---|
A|-------------------------4-------|-3-----3---------2---------------|
E|---------------------------------|---------------------------------|


e|-----0-2--0-------------2--------|-----0--2--3-------------2--------|
B|-------3--1-----4-----4----------|--------3--5-----4-----4----------|
G|---0-0-0--0----2----2----------0-|---0-0--0--0----2----2----------0-|
D|-2------------4---4--------2-4---|-2-------------4---4--------2-4---|
A|-------3--3--2-------------------|--------3-----2-------------------|
E|---------------------------------|----------------------------------|


e|---------------------------------|-----------------------2-----0-2-3-5-3-5-|
B|-0-----0-0-----0-0---------------|---------------------0-------------------|
G|-----0-------0-------2-0-2---0---|-0-----------------2---------------------|
D|-2-2-----1-1-----0-0-------0---4-|-----2-----------1-----------------------|
A|-------------------------4-------|-3-------3---1-2-------------------------|
E|---------------------------------|-----------------------------------------|


e|-3---------3-2-3-2---------0-2---|-0-------------------0-2-3-5-7-5-|
B|-------1-------------3---3-----3-|-----1---1---1---1-----------8-7-|
G|-----0---0---------2---2---------|-----0---2---4---2---------------|
D|---2-----------------------------|---2---2---2---2-----------------|
A|-3-------3-------3-------3---3---|-0-------------------------------|
E|---------------------------------|---------------------------------|


e|-3---------3-5-3-2-----2---0-2---|---------------------------7-5-3-|
B|-------5---5-7-5-----3---3-----3-|-0-------------------0-----8-7-5-|
G|-----5---5---------2-------------|-----2---2---2-------------------|
D|---5-------------0-----------0---|---1---1---1---1---1-------------|
A|-3-------3---------------0-------|-2---------------2---------------|
E|---------------------------------|---------------------------------|


e|-7-----7-7-----7-7---5-3-5---3-2-|-3---0---------------------0-2-3-|
B|-8---8-------8-------------------|---------1-------0---------------|
G|-0-0-------0-------0-------0-----|---0---0-----0-------2---2-------|
D|---------------------------------|-----------2---0---1---1---------|
A|-7-------5-------4-------4-------|-3-------3-------2---------------|
E|---------------------------------|---------------------------------|


e|-0---0---------------------0-2-3-|-0-------------------------0-2-3-|
B|---------1---1---0---------------|-------1-------------0---0-------|
G|---0---0---0---0-----2---2-------|---0-------0---0---2---2---------|
D|-----2-------------1---1---------|-----2---4---2---1---------------|
A|-3---------------2---------------|-3-------------------------------|
E|---------------------------------|---------------------------------|


e|-7-----7-------7-----5-3-5---3-2-|-3---0--------------0------------------0-|
B|-----0-------0-------------------|-------0-0---4-----0------------------0--|
G|---0-------0-------0-------0-----|---0---0-2---2----0------------------0---|
D|---------------------------------|-------------1--------2-------------2----|
A|-7-------5-------4-------4-------|-3-------2---2------------2--------2-----|
E|---------------------------------|-----------------0------------3---0------|
Добавлено: 15.05.2012
Другие материалы по этой песне:

Страница создана 18.04.2012
http://primanota.ru/carlos-paredes/verdes-anos-chords.htm
Привет, Гость.
Предлагаем пройти революционный курс по гитаре.
Подарок от PrimaNota.Ru, забирай!