PrimaNota.ru - самый крупный в мире бесплатный архив песенных текстов, аккордов, табулатур и нот


Carlos Gardel - Tango - бас-таба, видео

Регистрация Запомнить меня
Войти через:  Facebook Google Twitter Vk Yandex Mail.ru

Carlos Gardel - Tango - бас-таба, видео

Печатать
Просмотров: 281
Artist: Carlos Gardel and Alfredo Le Pera
Song: Por una Cabeza
Kevin Goldsmith Tabbed This, please comment! (www.skaterb0b@yahoo.com)

G|--55-7-99-4---2--22-4-66-1---0--00-2-44----0-44-3----12-11-----|
D|---------------------------------------------------------------|
A|---------------------------------------------------------------|
E|---------------------------------------------------------------|

G|---12---1212-14-1616--11--9--99--11--1313--8---6--66--8-10-10--|
D|---------------------------------------------------------------|
A|---------------------------------------------------------------|
E|---------------------------------------------------------------|

G|---5--1010---9----15-14--15--1515-17----1919---14--12--1212 14-|
D|---------------------------------------------------------------|
A|---------------------------------------------------------------|
E|---------------------------------------------------------------|


                                            (Last note fades out)
G|---16-16---11---9--99--11--13-13--8--6--66-8-10-10-5-10-10--9--|
D|---------------------------------------------------------------|
A|---------------------------------------------------------------|
E|---------------------------------------------------------------|
Добавлено: 22.03.2012
Другие материалы по этой песне:

Страница создана 08.03.2012
http://primanota.ru/carlos-gardel/tango-chords.htm
Привет, Гость.
Предлагаем пройти революционный курс по гитаре.
Подарок от PrimaNota.Ru, забирай!