PrimaNota.ru - самый крупный в мире бесплатный архив песенных текстов, аккордов, табулатур и нот


Carlo Domeniconi - Op 19 - Koyunbaba - Part Iv - Presto - таба, видео

Регистрация Запомнить меня
Войти через:  Facebook Google Twitter Vk Yandex Mail.ru

Carlo Domeniconi - Op 19 - Koyunbaba - Part Iv - Presto - таба, видео

Печатать
Просмотров: 250
Date: Sun, 17 Feb 2002 01:32:19 -0800 (PST)
From: Dudewad 
Subject: Re: koyunbaba tab

last updated 2nd February 2005

Koyunbaba
Carlo Domeniconi

                               Part IV

Presto

E ||------------------------------||-------------------------------|
C#||--3p0------------------3p0----||---5p0-----------5p0----8p0----|
G#||---------5p0----5p0-----------||*---------7p0------------------|
C#||-------0------0------0------0-||*-------0------0------0------0-|
G#||------------------------------||-------------------------------|
C#||------------------------------||-------------------------------|
      1      3      3      1           1      3      1      2

-------------------------------||------------------------------|
--7p0-----------7p0------------||--5p0-----------5p0-----------|
---------8p0-----------8p0----*||---------7p0-----------7p0----|
-------0------0------0------0-*||-------0------0------0------0-|
-------------------------------||------------------------------|
-------------------------------||------------------------------|
  1      2      1      2           1      3      1      3

------------------------------|------------------------------|
--3p0-----------3p0-----------|--2p0-----------2p0-----------|
---------5p0-----------5p0----|---------3p0-----------3p0----|
-------0------0------0------0-|-------0------0------0------0-|
------------------------------|------------------------------|
------------------------------|------------------------------|
  1      3      1      3         1      2      1      2

|----------------------------------------||
|----------------------------------------||
|*--0h-5--5--5p-0-----0h-3--3--3p-0-----*||
|*-----------------0-----------------0--*||
|----------------------------------------||
|----------------------------------------||
       4                 2

--------------------------------------|
--------------------------------------|
--0h-5--5--5p-0-----0h-7--7--7p-0-----|
-----------------0-----------------0--|
--------------------------------------|
--------------------------------------|
     2                 2

-----------------------------------------|
-----------------------------------------|
--0h-8--8--8p-0-----0h-10--10--10p-0-----|
-----------------0--------------------0--|
-----------------------------------------|
-----------------------------------------|
     2                 2

--------------------------------------------|
--------------------------------------------|
--0h-12--12--12p-0-----0h-13--13--13p-0-----|
--------------------0--------------------0--|
--------------------------------------------|
--------------------------------------------|
     2                 2

--------------------------------------------|
--------------------------------------------|
--0h-15--15--15p-0-----0h-13--13--13p-0-----|
--------------------0--------------------0--|
--------------------------------------------|
--------------------------------------------|
     2                 2

--------------------------------------------|
--------------------------------------------|
--0h-12--12--12p-0-----0h-10--10--10p-0-----|
--------------------0--------------------0--|
--------------------------------------------|
--------------------------------------------|
     2                 2

--------------------------------------|--------------------------------------|
--------------------------------------|--------------------------------------|
--0h-8--8--8p-0-----0h-7--7--7p-0-----|--0h-5--5--5p-0-----0h-3--3--3p-0-----|
-----------------0-----------------0--|-----------------0-----------------0--|
--------------------------------------|--------------------------------------|
--------------------------------------|--------------------------------------|
     2                 2                    2                 2 

--------------------------------------|------------------------------|
--------------------------------------|--3p0------------------3p0----|
--0h-1--1--1p-0-----0h-1--1--1p-0-----|---------5p0----5p0-----------|
-----------------0-----------------0--|-------0------0------0------0-|
--------------------------------------|------------------------------|
--------------------------------------|------------------------------|
     2                 2

|-------------------------------|-------------------------------||
|---5p0-----------5p0----8p0----|--7p0-----------7p0------------||
|*---------7p0------------------|---------8p0-----------8p0----*||
|*-------0------0------0------0-|-------0------0------0------0-*||
|-------------------------------|-------------------------------||
|-------------------------------|-------------------------------||


------------------------------|------------------------------|
--5p0-----------5p0-----------|--3p0-----------3p0-----------|
---------7p0-----------7p0----|---------5p0-----------5p0----|
-------0------0------0------0-|-------0------0------0------0-|
------------------------------|------------------------------|
------------------------------|------------------------------|


------------------------------|------------------------------|
--2p0-----------2p0-----------|------------------------------|
---------3p0-----------3p0----|--0h-5-5-5p-0---0h-3-3-3p-0---|
-------0------0------0------0-|--------------0-------------0-|
------------------------------|------------------------------|
------------------------------|------------------------------|


------------------------------|------------------------------|
------------------------------|---------0-------------0------|
--0h-5-5-5p-0---0h-3-3-3p-0---|--0-------------0-------------|
--------------0-------------0-|-----3-3----0-0----5-5----0-0-|
------------------------------|------------------------------|
------------------------------|------------------------------|
                                    2                 2

------------------------------|----------------------------------|
---------0-------------0------|-----------0---------------0------|
--0-------------0-------------|--0---------------0---------------|
-----7-7----0-0----8-8----0-0-|-----10-10----0-0----12-12----0-0-|
------------------------------|----------------------------------|
------------------------------|----------------------------------|
     2             2                2               2

----------------------------------|----------------------------------|
-----------0---------------0------|-----------0---------------0------|
--0---------------0---------------|--0---------------0---------------|
-----14-14----0-0----15-15----0-0-|-----14-14----0-0----12-12----0-0-|
----------------------------------|----------------------------------|
----------------------------------|----------------------------------|
     2               2                  2               2

--------------------------------|------------------------------|
-----------0-------------0------|---------0-------------0------|
--0---------------0-------------|--0-------------0-------------|
-----10-10----0-0----8-8----0-0-|-----7-7----0-0----5-5----0-0-|
--------------------------------|------------------------------|
--------------------------------|------------------------------|
     2               2                2             2

------------------------------|------------------------------|
---------0-------------0------|--3h0------------------3h0----|
--0-------------0-------------|---------5h0----5h0-----------|
-----3-3----0-0----2-2----0-0-|-------0------0------0------0-|
------------------------------|------------------------------|
------------------------------|------------------------------|
     2             2

|-------------------------------|-------------------------------||
|---5p0-----------5p0----8p0----|--7p0-----------7p0------------||
|*---------7p0------------------|---------8p0-----------8p0----*||
|*-------0------0------0------0-|-------0------0------0------0-*||
|-------------------------------|-------------------------------||
|-------------------------------|-------------------------------||


------------------------------|------------------------------|
--5p0-----------5p0-----------|--3p0-----------3p0-----------|
---------7p0-----------7p0----|---------5p0-----------5p0----|
-------0------0------0------0-|-------0------0------0------0-|
------------------------------|------------------------------|
------------------------------|------------------------------|


------------------------------|------------------------------|
--2p0-----------2p0-----------|--3p0------------------3p0----|
---------3p0-----------3p0----|---------5p0----5p0-----------|
-------0------0------0------0-|-------0------0------0------0-|
------------------------------|------------------------------|
------------------------------|------------------------------|


------------------------------|------------------------------|
--5p0-----------5p0----8p0----|--7p0-----------7p0-----------|
---------7p0------------------|---------8p0-----------8p0----|
-------0------0------0------0-|-------0------0------0------0-|
------------------------------|------------------------------|
------------------------------|------------------------------|


------------------------------|-----------------------9p0----|
--5p0-----------5p0----8p0----|--7p0-----------7p0-----------|
---------7p0------------------|---------8p0------------------|
-------0------0------0------0-|-------0------0------0------0-|
------------------------------|------------------------------|
------------------------------|------------------------------|
                                                      3

--12p0------------12p0-----------|--12p0-----------12p0-----------|
----------10p0------------8p0----|----------7p0------------5p0----|
--------0---------------0--------|--------0--------------0--------|
----------------0--------------0-|---------------0--------------0-|
---------------------------------|--------------------------------|
---------------------------------|--------------------------------|
   4      2        4      1         4      1       4       1

--7p0-----------7p0-----------|--7p0-----------7p0-----------|
---------3p0-----------2p0----|---------3p0-----------2p0----|
-------0-------------0--------|-------0-------------0--------|
--------------0-------------0-|--------------0-------------0-|
------------------------------|------------------------------|
------------------------------|------------------------------|
  4      1      4      1          4     1      4      1

------------------------------||-------------------------------|
--3p0------------------3p0----||---5p0-----------5p0----8p0----|
---------5p0----5p0-----------||*---------7p0------------------|
-------0------0------0------0-||*-------0------0------0------0-|
------------------------------||-------------------------------|
------------------------------||-------------------------------|
  4      1      4      1         4      1      4      1

-------------------------------||------------------------------|
--7p0-----------7p0------------||--5p0-----------5p0-----------|
---------8p0-----------8p0----*||---------7p0-----------7p0----|
-------0------0------0------0-*||-------0------0------0------0-|
-------------------------------||------------------------------|
-------------------------------||------------------------------|


------------------------------|------------------------------|
--3p0-----------3p0-----------|--2p0-----------2p0-----------|
---------5p0-----------5p0----|---------3p0-----------3p0----|
-------0------0------0------0-|-------0------0------0------0-|
------------------------------|------------------------------|
------------------------------|------------------------------|


|----------------------------------------||
|----------------------------------------||
|*--0h-5--5--5p-0--0--0h-3--3--3p-0-----*||
|*-----------------------------------0--*||
|----------------------------------------||
|----------------------------------------||
       4                 2

--------------------------------------|--------------------------------------|
--------------------------------------|--------------------------------------|
--0h-5--5--5p-3--3--3p-1--1--1p-0--0--|--0-----------------------------------|
--------------------------------------|----h5--5--5p-3--3--3p-2--2--2p-0--0--|
--------------------------------------|--------------------------------------|
--------------------------------------|--------------------------------------|
     4        2        1                    4        2        1

--------------------------------------|--------------------------------------|
--------------------------------------|--------------------------------------|
--------------------------------------|--------------------------------------|
--0-----------------------------------|--------------------------------------|
----h5--5--5p-3--3--3p-1--1--1p-0--0--|--0-----------------------------------|
--------------------------------------|----h5--5--5p-3--3--3p-2--2--2p-0--0--|
     4        2        1                    4        2        1

------------------------------||-------------------------------|
--3p0------------------3p0----||---5p0-----------5p0----8p0----|
---------5p0----5p0-----------||*---------7p0------------------|
-------0------0------0------0-||*-------0------0------0------0-|
------------------------------||-------------------------------|
------------------------------||-------------------------------|


-------------------------------||------------------------------|
--7p0-----------7p0------------||--5p0-----------5p0-----------|
---------8p0-----------8p0----*||---------7p0-----------7p0----|
-------0------0------0------0-*||-------0------0------0------0-|
-------------------------------||------------------------------|
-------------------------------||------------------------------|


------------------------------|------------------------------|
--3p0-----------3p0-----------|--2p0-----------2p0-----------|
---------5p0-----------5p0----|---------3p0-----------3p0----|
-------0------0------0------0-|-------0------0------0------0-|
------------------------------|------------------------------|
------------------------------|------------------------------|


------------------------------|------------------------------|
--3p0------------------3p0----|--5p0-----------5p0----8p0----|
---------5p0----5p0-----------|---------7p0------------------|
-------0------0------0------0-|-------0------0------0------0-|
------------------------------|------------------------------|
------------------------------|------------------------------|


------------------------------|------------------------------|
--7p0-----------7p0-----------|--5p0-----------5p0----8p0----|
---------8p0-----------8p0----|---------7p0------------------|
-------0------0------0------0-|-------0------0------0------0-|
------------------------------|------------------------------|
------------------------------|------------------------------|


-----------------------9p0----|--12p0------------12p0-----------|
--7p0-----------7p0-----------|----------10p0------------8p0----|
---------8p0------------------|--------0---------------0--------|
-------0------0------0------0-|----------------0--------------0-|
------------------------------|---------------------------------|
------------------------------|---------------------------------|
                                 4       2       4       1

--12p0--------------------------|-------------------------------|
----------7p0----8p0----10p0----|--8p0----7p0----8p0----10p0----|
--------0---------------------0-|-------0-------------0---------|
---------------0------0---------|--------------0--------------0-|
--------------------------------|-------------------------------|
--------------------------------|-------------------------------|
  4       1      2      4          2      1      2      4

|-----------12p0------------12p0----|----------12p0------------12p0----|
|---12p0------------14p0------------|--12p0------------14p0------------|
|*--------0---------------0---------|--------0---------------0---------|
|*----------------0---------------0-|----------------0---------------0-|
|-----------------------------------|----------------------------------|
|-----------------------------------|----------------------------------|
    2       2       4       2

                                          
----------12p0------------12p0----|--14p0----12p0------------12p0-----||
--12p0------------14p0------------|------------------14p0-------------||
--------0---------------0---------|--------0---------------0---------*||
----------------0---------------0-|----------------0---------------0-*||
----------------------------------|-----------------------------------||
----------------------------------|-----------------------------------||
                                     4       2       4       2

----------12p0------------12p0----|---------12p0-----------12p0----|
--12p0------------10p0------------|--8p0------------7p0------------|
--------0---------------0---------|-------0--------------0---------|
----------------0---------------0-|---------------0--------------0-|
----------------------------------|--------------------------------|
----------------------------------|--------------------------------|
  2       2       2        4         1      4       1      4

---------7p0-----------7p0----|---------7p0-----------7p0----|
--5p0-----------3p0-----------|--2p0-----------3p0-----------|
-------0-------------0------0-|-------0-------------0--------|
--------------0---------------|--------------0-------------0-|
------------------------------|------------------------------|
------------------------------|------------------------------|
  1      4      1      4         1      4      1      4

---------5p0-----------5p0----|-------------------------------|
--5p0-----------7p0-----------|--5p0----7p0----8p0----10p0----|
-------0-------------0--------|-------0-------------0---------|
--------------0-------------0-|--------------0--------------0-|
------------------------------|-------------------------------|
------------------------------|-------------------------------|
  1      1      3      1         1      1      2      4

                                                                        
|-----------12p0------------12p0----|----------12p0------------12p0----|
|---12p0------------14p0------------|--12p0------------14p0------------|
|*--------0---------------0---------|--------0---------------0---------|
|*----------------0---------------0-|----------------0---------------0-|
|-----------------------------------|----------------------------------|
|-----------------------------------|----------------------------------|

                                                                        
----------12p0------------12p0----|--14p0----12p0------------12p0-----||
--12p0------------14p0------------|------------------14p0-------------||
--------0---------------0---------|--------0---------------0---------*||
----------------0---------------0-|----------------0---------------0-*||
----------------------------------|-----------------------------------||
----------------------------------|-----------------------------------||

                                                                     
-----------12p0------------12p0----|---------12p0-----------12p0----|
---12p0------------10p0------------|--8p0------------7p0------------|
*--------0---------------0---------|-------0--------------0---------|
*----------------0---------------0-|---------------0--------------0-|
-----------------------------------|--------------------------------|
-----------------------------------|--------------------------------|
   4       4       2       4          1      4       1      4

 
                                 1st Ending -->..................
---------12p0-----------12p0----|---------12p0-----------12p0----|
--5p0------------3p0------------|--2p0------------3p0------------|
-------0--------------0---------|-------0--------------0---------|
---------------0--------------0-|---------------0--------------0-|
--------------------------------|--------------------------------|
--------------------------------|--------------------------------|


...................................................................:
---------12p0-----------12p0----|---------12p0------------12p0-----||
--5p0------------7p0------------|--8p0------------10p0-------------||
-------0--------------0---------|-------0---------------0---------*||
---------------0--------------0-|---------------0---------------0-*||
--------------------------------|----------------------------------||
--------------------------------|----------------------------------||
                                   1      4       2       4

2nd Ending -->
---------12p0-----------12p0----|---------12p0-----------12p0----|
--2p0------------3p0------------|--5p0------------3p0------------|
-------0--------------0---------|-------0--------------0---------|
---------------0--------------0-|---------------0--------------0-|
--------------------------------|--------------------------------|
--------------------------------|--------------------------------|


---------12p0-----------12p0----|------------------------------|
--2p0------------5p0------------|--3p0------------------3p0----|
-------0--------------0---------|---------5p0----5p0-----------|
---------------0--------------0-|-------0------0------0------0-|
--------------------------------|------------------------------|
--------------------------------|------------------------------|


|-------------------------------|-------------------------------||
|---5p0-----------5p0----8p0----|--7p0-----------7p0------------||
|*---------7p0------------------|---------8p0-----------8p0----*||
|*-------0------0------0------0-|-------0------0------0------0-*||
|-------------------------------|-------------------------------||
|-------------------------------|-------------------------------||


------------------------------|------------------------------|
--5p0-----------5p0-----------|--3p0-----------3p0-----------|
---------7p0-----------7p0----|---------5p0-----------5p0----|
-------0------0------0------0-|-------0------0------0------0-|
------------------------------|------------------------------|
------------------------------|------------------------------|


------------------------------|--------------------------------------|
--2p0-----------2p0-----------|--------------------------------------|
---------3p0-----------3p0----|--0h-5--5--5p-0--0--0h-3--3--3p-0-----|
-------0------0------0------0-|-----------------------------------0--|
------------------------------|--------------------------------------|
------------------------------|--------------------------------------|


--------------------------------------|
--------------------------------------|
--0h-5--5--5p-3--3--3p-1--1--1p-0--0--|
--------------------------------------|
--------------------------------------|
--------------------------------------|


|----------------------------------------||
|----------------------------------------||
|*--0-----------------------------------*||
|*----h5--5--5p-3--3--3p-2--2--2p-0--0--*||
|----------------------------------------||
|----------------------------------------||


--------------------------------------|--------------------------------------|
--------------------------------------|--------------------------------------|
--------------------------------------|--------------------------------------|
--0-----------------------------------|--------------------------------------|
----h5--5--5p-3--3--3p-1--1--1p-0--0--|--0-----------------------------------|
--------------------------------------|----h5--5--5p-3--3--3p-2--2--2p-0--0--|


|---------------------------------------------------------------|
|---------------------------------------------------------------|
|*--------------------------------------------------------------|
|*--------------------------------------------------------------|
|---<7>--<7>--<7>--<7>--<7>--<7>--<7>--<7>--<7>--<7>--<7>--<7>--|
|---<7>--<7>--<7>--<7>--<7>--<7>--<7>--<7>--<7>--<7>--<7>--<7>--|
     1
     1

--------------------------------------------------------------|
--------------------------------------------------------------|
--------------------------------------------------------------|
--------------------------------------------------------------|
--<7>--<7>--<7>--<7>--<7>--<7>--<7>--<7>--<7>--<7>--<7>--<7>--|
--<7>--<7>--<7>--<7>--<7>--<7>--<7>--<7>--<7>--<7>--<7>--<7>--|


--------------------------------------------------------------|
--------------------------------------------------------------|
--------------------------------------------------------------|
-----------------10-------------------------------------------|
--<7>--<7>--<7>--<7>--<7>--<7>--<7>--<7>--<7>--<7>--<7>--<7>--|
--<7>--<7>--<7>--<7>--<7>--<7>--<7>--<7>--<7>--<7>--<7>--<7>--|
                  4
                  1
                  1

--------------------------------------------------------------|
--------------------------------------------------------------|
--------------------------------------------------------------|
--------------------------------------------------------------|
--<7>--<7>--<7>--<7>--<7>--<7>--<7>--<7>--<7>--<7>--<7>--<7>--|
--<7>--<7>--<7>--<7>--<7>--<7>--<7>--<7>--<7>--<7>--<7>--<7>--|


--------------------------------------------------------------|
--------------------------------------------------------------|
--------------------------------------------------------------|
------------------8-------------------------------------------|
--<7>--<7>--<7>--<7>--<7>--<7>--<7>--<7>--<7>--<7>--<7>--<7>--|
--<7>--<7>--<7>--<7>--<7>--<7>--<7>--<7>--<7>--<7>--<7>--<7>--|
                  2
                  1
                  1

--------------------------------------------------------------|
--------------------------------------------------------------|
--------------------------------------------------------------|
--------------------------------------------------------------|
--<7>--<7>--<7>--<7>--<7>--<7>--<7>--<7>--<7>--<7>--<7>--<7>--|
--<7>--<7>--<7>--<7>--<7>--<7>--<7>--<7>--<7>--<7>--<7>--<7>--|


---------------------------------------------------|
---------------------------------------------------|
---------------------------------------------------|
---------------------------------------------------|
--<7>--<7>--<7>--0--0--0---<7>--<7>--<7>--0--0--0--|
--<7>--<7>--<7>--0--0--0---<7>--<7>--<7>--0--0--0--|


----------------------------------------------------|
----------------------------------------------------|
---------------------------------------------------*|
---------------------------------------------------*|
--<7>--<7>--<7>--0--0--0---<7>--<7>--<7>--0--0--0---|
--<7>--<7>--<7>--0--0--0---<7>--<7>--<7>--0--0--0---|


--------------------------------------------------------------|
--------------------------------------------------------------|
--------------------------------------------------------------|
------------------5-------------------------------------------|
--<7>--<7>--<7>--<7>--<7>--<7>--<7>--<7>--<7>--<7>--<7>--<7>--|
--<7>--<7>--<7>--<7>--<7>--<7>--<7>--<7>--<7>--<7>--<7>--<7>--|
                  1
                  3
                  3

--------------------------------------------------------------|
--------------------------------------------------------------|
--------------------------------------------------------------|
--------------------------------------------------------------|
--<7>--<7>--<7>--<7>--<7>--<7>--<7>--<7>--<7>--<7>--<7>--<7>--|
--<7>--<7>--<7>--<7>--<7>--<7>--<7>--<7>--<7>--<7>--<7>--<7>--|


--------------------------------------------------------------|
--------------------------------------------------------------|
--------------------------------------------------------------|
------------------3-------------------------------------------|
--<5>--<5>--<5>--<5>--<5>--<5>--<5>--<5>--<5>--<5>--<5>--<5>--|
--<5>--<5>--<5>--<5>--<5>--<5>--<5>--<5>--<5>--<5>--<5>--<5>--|
                  1
                  3
                  3

--------------------------------------------------------------|
--------------------------------------------------------------|
--------------------------------------------------------------|
--------------------------------------------------------------|
--<5>--<5>--<5>--<5>--<5>--<5>--<5>--<5>--<5>--<5>--<5>--<5>--|
--<5>--<5>--<5>--<5>--<5>--<5>--<5>--<5>--<5>--<5>--<5>--<5>--|


--------------------------------------------------------------|
--------------------------------------------------------------|
--------------------------------------------------------------|
------------------2-------------------------------------------|
--<5>--<5>--<5>--<5>--<5>--<5>--<5>--<5>--<5>--<5>--<5>--<5>--|
--<5>--<5>--<5>--<5>--<5>--<5>--<5>--<5>--<5>--<5>--<5>--<5>--|
                  1
                  4
                  4

--------------------------------------------------------------|
--------------------------------------------------------------|
--------------------------------------------------------------|
--------------------------------------------------------------|
--<5>--<5>--<5>--<5>--<5>--<5>--<5>--<5>--<5>--<5>--<5>--<5>--|
--<5>--<5>--<5>--<5>--<5>--<5>--<5>--<5>--<5>--<5>--<5>--<5>--|


-------------------|-------------------|------------------|------------------|
--//---------------|--//---------------|--//--------------|--//--------------|
-------------------|-------------------|------------------|------------------|
--0----------------|--0----------------|--0---------------|--0---------------|
--5----------------|--3----------------|--1---------------|--0---------------|
--0----------------|--0----------------|--0---------------|--0---------------|
  4                   2                   1

------------------------------||-------------------------------|
--3p0------------------3p0----||---5p0-----------5p0----8p0----|
---------5p0----5p0-----------||*---------7p0------------------|
-------0------0------0------0-||*-------0------0------0------0-|
------------------------------||-------------------------------|
------------------------------||-------------------------------|


-------------------------------||------------------------------|
--7p0-----------7p0------------||--5p0-----------5p0-----------|
---------8p0-----------8p0----*||---------7p0-----------7p0----|
-------0------0------0------0-*||-------0------0------0------0-|
-------------------------------||------------------------------|
-------------------------------||------------------------------|


------------------------------|------------------------------|
--3p0-----------3p0-----------|--2p0-----------2p0-----------|
---------5p0-----------5p0----|---------3p0-----------3p0----|
-------0------0------0------0-|-------0------0------0------0-|
------------------------------|------------------------------|
------------------------------|------------------------------|


------------------------------||-------------------------------|
--3p0------------------3p0----||---5p0-----------5p0----8p0----|
---------5p0----5p0-----------||*---------7p0------------------|
-------0------0------0------0-||*-------0------0------0------0-|
------------------------------||-------------------------------|
------------------------------||-------------------------------|

                               3x
-----------------------9p0-----||------------------------------|
--7p0-----------7p0------------||--5p0-----------5p0-----------|
---------8p0------------------*||---------7p0-----------7p0----|
-------0------0------0------0-*||-------0------0------0------0-|
-------------------------------||------------------------------|
-------------------------------||------------------------------|


------------------------------|------------------------------|
--3p0-----------3p0-----------|--2p0-----------2p0-----------|
---------5p0-----------5p0----|---------3p0-----------3p0----|
-------0------0------0------0-|-------0------0------0------0-|
------------------------------|------------------------------|
------------------------------|------------------------------|


--------------------------------------|--------------------------------------|
--------------------------------------|--------------------------------------|
--0h-5--5--5p-0--0--0h-3--3--3p-0-----|--0h-5--5--5p-3--3--3p-1--1--1p-0--0--|
-----------------------------------0--|--------------------------------------|
--------------------------------------|--------------------------------------|
--------------------------------------|--------------------------------------|


--------------------------------------|--------------------------------------|
--------------------------------------|--------------------------------------|
--0-----------------------------------|--------------------------------------|
----h5--5--5p-3--3--3p-2--2--2p-0--0--|--0-----------------------------------|
--------------------------------------|----h5--5--5p-3--3--3p-1--1--1p-0--0--|
--------------------------------------|--------------------------------------|

                                       Moderato (Tempo I)

--------------------------------------|-(9--7--7--9--11--------7--|
--------------------------------------|-)0---------------------7--|
--------------------------------------|-(0------------------7-----|
--------------------------------------|-)0---------------7--------|
--0-----------------------------------|---------------------------|
----h5--5--5p-3--3--3p-2--2--2p-0--0--|---------------------------|
                                         3  1     3  4   1  1  1
                                                               1

--9--7--7--9-----0--------|--5-----------------------|
-----------0--7-----7-----|--7--5--5h-7--5h-7--3h-5--|
--------0--------------0--|--5-----5-----------0-----|
-----0--------------0-----|--5-----------------------|
--------------------------|--------------------------|
--------------------------|--------------------------|
  3  1     3  1              1  1  1  3  1  3  1  3
                             3     1           0
                             1
                             1

--------------0-----------|--4--------4--2--------0--|
--7--------7-----7--------|--------0-----------0-----|
--------0-----------0-----|-----0-----------0--------|
-----0-----------------0--|--3-----------0-----------|
--------------------------|--------------------------|
--------------------------|--------------------------|
  4                          4           1
                             2

-----------------------|--4--------4--2--------0--|
--------------0--------|--------0-----------0-----|
--------------0--------|-----0-----------0--------|
-----------0-----------|--3-----------0-----------|
--------1--------------|--------------------------|
--0h-3-----------------|--------------------------|
     3  1                 4           1
                          1

-------------------------|-----------------------0--|
--------------0----------|-----------0--------1-----|
--------------0----------|--------1--------3--------|
-----------1-------------|--0h-3--------0-----------|
-----0h-3-------------0--|--------------------------|
--0----------------0-----|--------------------------|
        3  1                   3  1        3  1

--1--0h-1p-0-----0-----------|--1--0h-1p-0-----0-----------|
--3-----------3-----1-----0--|--3-----------3-----1-----0--|
--0--------------------3-----|--0--------------------3-----|
--0-----------------0--------|--0-----------------0--------|
-----------------------------|-----------------------------|
-----------------------------|-----------------------------|
  1     1     3     1  3        1     1     3     1  3
  3                             3

--1--0h-1p-0-----0--2--0--2--|-------------------4----||
--3-----------3-----0--------|--------------0---------||
--0-----------------2--------|-----------0------------||
--0-----------------0--------|--------0---------------||
-----------------------------|-----0------------------||
-----------------------------|--0---------------------||
  1     1     3     2     2                      4
  3                 1

******************************************************************************

Добавлено: 25.02.2012
Вам также может быть интересно:
Другие материалы по этой песне:
  • Аккорды и текст

Страница создана 25.02.2012
http://primanota.ru/carlo-domeniconi/op-19-koyunbaba-part-iv-presto-chords.htm
Привет, Гость.
Предлагаем пройти революционный курс по гитаре.
Подарок от PrimaNota.Ru, забирай!