PrimaNota.ru - самый крупный в мире бесплатный архив песенных текстов, аккордов, табулатур и нот


Carlo Domeniconi - Op 19 - Koyunbaba - Part Iii - Cantabile - таба, видео

Регистрация Запомнить меня
Войти через:  Facebook Google Twitter Vk Yandex Mail.ru

Carlo Domeniconi - Op 19 - Koyunbaba - Part Iii - Cantabile - таба, видео

Печатать
Просмотров: 221
Koyunbaba, Part III - Carlo Domeniconi (1985)

Date: Wed, 27 Jun 2001 22:19:15 -0700 (PDT)
From: Armin Eslami 
Subject: koyunbaba 3
To: weed@wussu.com

key + info after the tab
last updated 2nd February 2005

Koyunbaba - Carlo Domeniconi (born 1947)

                  Part  III

     Cantabile

       |     |     |     |       
E  ||-----------------0-----0--|-----------------0--------|
C# ||--8-s7-----7========7-----|--3-s2-----2-----------2--|
G# ||*-------------0-----------|--------------0-----------|
C# ||*-8-----7-----------------|--3-----2-----------2-----|
G# ||--------------------------|--------------------------|
C# ||--------------------0=====|==========================|
       3  3  2  3        3        3  3  2
       2                          2
                                

    |--------------------------|
    |--3-p0-----0-----0========|
    |--------0-----------0-----|
    |--0-----------0-----------|
    |--------------------------|
    |--------------------------|
       3

                                  CV
    |--------------------------|-----------5===========5-----5--|
    |-----0-----0-----0========|--5-h7--8========8--------8-----|
    |--------------0-----------|--------------------5-----------|
    |--------0-----------0-----|--------------5-----------------|
    |--------------------------|--------5-----------------------|
    |--0=======================|--5-----------------------------|
                                     3  4                 4

                                CVII
    |-----5===========5========|-----------7===========7-----7--|
    |--7========5===========5--|--7-h8--10=======10=======10----|
    |--------------------5-----|--------------------7-----------|
    |--------------5-----------|--------------7-----------------|
    |--------5-----------------|--------7-----------------------|
    |--5-----------------------|--7-----------------------------|
       3                             2  4                 4


    |--9--7--11-7--9--7========|-----7===========7========|
    |--------------------10-8--|--7========7==============|
    |--------------------7-----|--------------------7-----|
    |--------------7-----------|--------------7-----------|
    |--------7-----------------|--------7-----------------|
    |--7-----------------------|--7-----------------------|
       3     4     3     4  2                                

      CV
    |-----------5===========5-----5--|-----5===========5========|
    |--5--7--8========8========8-----|--7========5===========5--|
    |--------------------5-----------|--------------------5-----|
    |--------------5-----------------|--------------5-----------|
    |--------5-----------------------|--------5-----------------|
    |--5-----------------------------|--5-----------------------|


    |-----5-----5-----5========|-----0-----0--|--------0-----------0-----|
    |--7-----5-----------------|--------------|-----------0-----------0--|
    |--------------8-----7-----|--8-----7-----|--5===========5===========|
    |--------------------5-----|--------------|-----0-----------0--------|
    |--------------5-----------|--------------|--------------------------|
    |--------5-----------------|--------0-----|--------------------------|
       3           4     3        4     3        1


    |--------0-----------0-----|--------0-----------0-----||
    |-----------0-----------0--|-----------0-----------0--||
    |--3===========1===========|--0===========0==========*||
    |-----0-----------0--------|-----0-----------0-------*||
    |--------------------------|--------------------------||
    |--------------------------|--------------------------||
       1           1


    |--------0-----------0-----|--------0-----------0-----|
    |-----------0-----------0--|-----------0-----------0--|
    |--12==========12==========|--12==========0===========|
    |-----0-----------0--------|-----0-----------0--------|
    |--------------------------|--------------------------|
    |--------------------------|--------------------------|
       3


    |--------0-----------0-----|--------0-----------0-----|
    |-----------0-----------0--|-----------0-----------0--|
    |--12==========12==========|--12==========0===========|
    |-----0-----------0--------|-----0-----------0--------|
    |--------------------------|--------------------------|
    |--------------------------|--------------------------|



    |--------0-----------0-----|--------0-----------0-----|
    |-----------12==========12=|--=========12==========12-|
    |--10=======---10=======---|--10=======---0===========|
    |-----0-----------0--------|-----0-----------0--------|
    |--------------------------|--------------------------|
    |--------------------------|--------------------------|
       1        3                                      3


    |--------0-----------0-----|--------0-----------0-----|
    |-----------0-----------0--|-----------0-----------0--|
    |--12==========12==========|--12==========10==========|
    |-----0-----------0--------|-----0-----------0--------|
    |--------------------------|--------------------------|
    |--------------------------|--------------------------|
                                              4

 
    |--------0-----------0-----|--------0-----------0-----|
    |-----------0-----------0--|-----------0-----------0--|
    |--10==========8===========|--7===========5===========|
    |-----0-----------0--------|-----0-----------0--------|
    |--------------------------|--------------------------|
    |--------------------------|--------------------------|
                   2              1


    |--------0-----------0-----|--------0-----------0-----|
    |-----------0-----------0--|-----------0-----------0--|
    |--3===========3===========|--1===========1===========|
    |-----0-----------0--------|-----0-----------0--------|
    |--------------------------|--------------------------|
    |--------------------------|--------------------------|
       1                          1


    |--------0-----------0-----|--------0-----------0-----|
    |-----------0-----------0--|-----------0-----------7==|
    |--0===========0===========|--0==========<12>=========|
    |-----0-----------0--------|-----0-----------0--------|
    |--------------------------|--------------------------|
    |--------------------------|--------------------------|
                                              4        1


    |--------0-----------0-----|--------0-----------0-----|
    |--=========7===========7==|--=========5--5========10=|
    |--0-----------0===========|--0========---0========---|
    |-----0-----------0--------|-----0-----------0--------|
    |--------------------------|--------------------------|
    |--------------------------|--------------------------|
                1                          1           1


    |--------0-----------0-----|--------0-----------0-----|
    |--=========7===========7==|--=========7===========5==|
    |--0========---0========---|--0========---0========---|
    |-----0-----------0--------|-----0-----------0--------|
    |--------------------------|--------------------------|
    |--------------------------|--------------------------|
                1                                      1


    |--------0-----------0-----|--------0-----------0-----|
    |--=========3===========3==|--=========3===========2==|
    |--0========---0========---|--0========---0========---|
    |-----0-----------0--------|-----0-----------0--------|
    |--------------------------|--------------------------|
    |--------------------------|--------------------------|
                1                                      1


    |--------0-----------0-----|--------0-----------0-----|
    |--=========3===========0==|--=========0===========0==|
    |--0========---0========---|--0========---0========---|
    |-----0-----------0--------|-----0-----------0--------|
    |--------------------------|--------------------------|
    |--------------------------|--------------------------|
                1

 
    |--------0-----------------|--0===========2===========|
    |--=========0===========0--|-----0-----------0--------|
    |--0========---0-----0-----|--------0-----------0--0--|
    |-----0-----------0--------|-----------0--------------|
    |--------------------------|--------------------------|
    |--------------------------|--------------------------|
                                              1
                                  a  m  i  p  a  m  i  p

                                                                                

    |--4===========4===========|--4===========4===========|
    |-----0-----------0--------|-----0-----------0--------|
    |--------0-----------0--0--|--------0-----------0--0--|
    |-----------0--------------|-----------0--------------|
    |--------------------------|--------------------------|
    |--------------------------|--------------------------|
       3


    |--4===========2===========|--2===========7===========|
    |-----0-----------0--------|-----0-----------0--------|
    |--------0-----------0--0--|--------0-----------0--0--|
    |-----------0--------------|-----------0--------------|
    |--------------------------|--------------------------|
    |--------------------------|--------------------------|
                   1                          1


    |--7===========4===========|--4===========4===========|
    |-----0-----------0--------|-----0-----------0--------|
    |--------0-----------0--0--|--------0-----------0--0--|
    |-----------0--------------|-----------0--------------|
    |--------------------------|--------------------------|
    |--------------------------|--------------------------|
                   3


    |--4===========2===========|--2===========0===========|
    |-----0-----------0--------|-----0-----------0--------|
    |--------0-----------0--0--|--------0-----------0--0--|
    |-----------0--------------|-----------0--------------|
    |--------------------------|--------------------------|
    |--------------------------|--------------------------|
                   1 


    |--4===========2===========|--2===========2===========|
    |-----0-----------0--------|-----0-----------0--------|
    |--------0-----------0--0--|--------0-----------0--0--|
    |-----------0--------------|-----------0--------------|
    |--------------------------|--------------------------|
    |--------------------------|--------------------------|
       3           1

 
    |--2===========0===========|--0===========0===========|
    |-----0-----------3--------|-----2-----------0--------|
    |--------0-----------0-----|--------0-----------0-----|
    |-----------0-----------0--|-----------0-----------0--|
    |--------------------------|--------------------------|
    |--------------------------|--------------------------|
       1              2              1


    |--0===========0===========|--0===========0===========|
    |-----0-----------0--------|-----0-----------0--------|
    |--------3-----------1-----|--------0-----------0-----|
    |-----------0-----------0--|-----------0--------------|
    |--------------------------|--------------------------|
    |--------------------------|-----------------------0==|
             3           1


    |--9===========7===========|--7===========9===========|
    |-----7-----------7--------|-----7-----------7--------|
    |--------0-----------0--0--|--------0-----------0--0--|
    |-----------0--------------|-----------0--------------|
    |--------------------------|--------------------------|
    |--========================|--------------------------|
       3                                      3                     
                            p

    |--11==========11==========|--11==========7===========|
    |-----7-----------7--------|-----7-----------7--------|
    |--------0-----------0-----|--------0-----------0--0--|
    |--------------------------|-----------0--------------|
    |-----------------------0--|--------------------------|
    |-----------0--------------|--------------------------|
       4


    |--9===========7===========|--7===========9===========|
    |-----7-----------7--------|-----7-----------7--------|
    |--------0-----------0--0--|--------0-----------0--0--|
    |-----------0--------------|-----------0--------------|
    |--------------------------|--------------------------|
    |--------------------------|--------------------------|



    |--0-----------0-----------|--0-----------0-----------|
    |-----7========---7========|-----7========---7========|
    |--------0-----------0--0--|--------0-----------0--0--|
    |-----------0--------------|-----------0--------------|
    |--------------------------|--------------------------|
    |--------------------------|--------------------------|
          3                  
                            p

     
     CV
    |--5-----------5-----------|--5-----------5-----------|
    |-----7========---5========|-----5========---7========|
    |--------5-----------5-----|--------5-----------5--5--|
    |--------------------------|-----------5--------------|
    |-----------------------5--|--------------------------|
    |-----------5--------------|--------------------------|
          3                                               
                                                       p

    |--5-----------5-----------|--5-----------5-----------|
    |-----5========---7========|-----5-----------5========|
    |--------5-----------5-----|--------8=====------5--5--|
    |--------------------------|-----------5--------------|
    |-----------------------5--|--------------------------|
    |-----------5--------------|--------------------------|
                                        4                  
                                                       p

    |--0-----------0-----------|--0-----------0-----------|
    |-----7========---7========|-----7========---7========|
    |--------0-----------0-----|--------0-----------0--0--|
    |--------------------------|-----------0--------------|
    |-----------------------0--|--------------------------|
    |-----------0--------------|--------------------------|
          3                                                   
                                                       p

    |--0-----------0-----------|--0-----------0-----------|
    |-----0-----------0--------|-----0-----------0--------|
    |--------0-----------0-----|--------0-----------0-----|
    |--------------------------|-----------0-----------3==|
    |-----------------------0--|--------------------------|
    |-----------0--------------|--------------------------|
                                                       2


    |--4-----------4-----------|--2-----------0-----------|
    |-----0-----------0--------|-----0-----------0--------|
    |--------0--0--------0-----|--------0--0--------0-----|
    |--=====================0==|--=====================---|
    |--------------------------|-----------------------3==|
    |--------------------------|--------------------------|
       4                          1                    2                      
                p                          p 

    |--4-----------4-----------|--2-----------0-----------|
    |-----0-----------0--------|-----0-----------0--------|
    |--------0--0--------0-----|--------0--0--------0-----|
    |-----------------------0--|--------------------------|
    |--========================|--=====================1==|
    |--------------------------|--------------------------|
                                                       1
                p

    |--4-----------4-----------|--2-----------0-----------|
    |-----0-----------0--------|-----0-----------0--------|
    |--------0--0--------0-----|--------0--0--------0-----|
    |-----------------------0--|--------------------------|
    |--========================|--=====================0==|
    |--------------------------|--------------------------|
       4
                p                          p

    |--4-----------4-----------|--2-----------0-----------|
    |-----0-----------0--------|-----0-----------0--------|
    |--------0-----------0-----|--------0-----------0-----|
    |-----------0--------------|-----------0--------------|
    |--=====================---|--------------------------|
    |-----------------------3==|--=====================2==|
                            2     1                    1


    |--4-----------4-----------|--2-----------0-----------|
    |-----0-----------0--------|-----0-----------0--------|
    |--------0-----------0-----|--------0-----------0-----|
    |-----------0--------------|-----------0--------------|
    |--------------------------|--------------------------|
    |--==================---1==|--=====================0==|
       4                    1     2

      A
    ||--9-----------0-----------|--11----------11----------|
    ||-----11----------9--------|-----0-----------0--------|
    ||*-------0-----------0--0--|--------0-----------0--0--|
    ||*----------0--------------|-----------0--------------|
    ||--------------------------|--------------------------|
    ||--========================|--------------------------|
        1  3           1           3
                             p                          p
                                                         
    
    |--7-----------0-----------|--9-----------9-----------||
    |-----9-----------7--------|-----0-----------0--------||
    |--------0-----------0--0--|--------0-----------0--0-*||
    |-----------0--------------|-----------0-------------*||
    |--------------------------|--------------------------||
    |--------------------------|--------------------------||
       1  3           1           3
                            p                          p

    |--5-----------4-----------|--2-----------0-----------|
    |-----7-----------5--------|-----3-----------2--------|
    |--------0-----------0--0--|--------0-----------0--0--|
    |-----------0--------------|-----------0--------------|
    |--------------------------|--------------------------|
    |--------------------------|--------------------------|
       1  3        1  2           1  2           1

                                                         B
    |--0-----------0-----------|--0-----------0-----------| repeat A-B
    |-----3-----------2--------|-----0-----------0--------|
    |--------5-----------3-----|--------1-----------0-----|
    |-----------0-----------0--|-----------0--------------|
    |--------------------------|--------------------------|
    |--------------------------|-----------------------0==|
          1  3        1  2              2


    |--9-----------0-----------|--11----------11----------|
    |-----11----------9--------|-----0-----------0--------|
    |--------0-----------0--0--|--------0-----------0--0--|
    |-----------0--------------|-----------0--------------|
    |--------------------------|--------------------------|
    |==========================|--------------------------|
       1  3           1           3 


    |--12----------0-----------|--14----------14----------|
    |-----14----------12-------|-----0-----------0--------|
    |--------0-----------0--0--|--------0-----------0--0--|
    |-----------0--------------|-----------0--------------|
    |--------------------------|--------------------------|
    |--------------------------|--------------------------|
       1  3           1            3


    |--7-----------0-----------|--9-----------9-----------|
    |-----9-----------7--------|-----0-----------0--------|
    |--------0-----------0--0--|--------0-----------0--0--|
    |-----------0--------------|-----------0--------------|
    |--------------------------|--------------------------|
    |--------------------------|--------------------------|
       1  3           1


    |--14----------0-----------|--16----------16----------|
    |-----15----------14-------|-----0-----------0--------|
    |--------0-----------0--0--|--------0-----------0--0--|
    |-----------0--------------|-----------0--------------|
    |--------------------------|--------------------------|
    |--------------------------|--------------------------|
       1  2           1           3


    |--5-----------4-----------|--2-----------0-----------|
    |-----7-----------5--------|-----3-----------2--------|
    |--------0-----------0--0--|--------0-----------0--0--|
    |-----------0--------------|-----------0--------------|
    |--------------------------|--------------------------|
    |--------------------------|--------------------------|
       1  3        1  2           1  2           1


    |--0-----------0-----------|--0--------------0--------|
    |-----3-----------2--------|-----0--------------0-----|
    |--------5-----------3-----|--------1----p0--------0--|
    |-----------0-----------0--|-----------0--------------|
    |--------------------------|--------------------------|
    |--------------------------|--------------------------|
          1  3        1  2              2

     CV
    |-----5-----------5--------|-----5-----------5--------|
    |--------5=====------7=====|--------8=====------8=====|
    |-----------5-----------5--|-----------5--5--------5--|
    |--------------------------|--5-----------------------|
    |--------------5-----------|--------------------------|
    |--5-----------------------|--------------------------|
                         3              4                     
                                           i  p
                                           

    |-----5-----------5--------|-----5-----------5--------|
    |--------8=====------8=====|--------7=====------5=====|
    |-----------5-----------5--|-----------5-----------5--|
    |--5-----------------------|--------------------------|
    |--------------5-----------|--------------5-----------|
    |--------------------------|--5-----------------------|
                                        3            

                                CVII
    |-----5-----------5--------|-----7-----------7--------|
    |--------5=====------5=====|--------7=====------8=====|
    |-----------5--5--------5--|-----------7-----------7--|
    |--5-----------------------|--------------------------|
    |--------------------------|--------------7-----------|
    |--------------------------|--7-----------------------|
                i  p


    |-----7-----------7--------|-----7-----------7--------|
    |--------10====------10====|--------10====------10====|
    |-----------7--7--------7--|-----------7-----------7--|
    |--7-----------------------|--7-----------------------|
    |--------------------------|--------------7-----------|
    |--------------------------|--------------------------|
             4                
                i  p 

    |-----9========---7========|-----11=======---7========|
    |--------7-----------7-----|--------7-----------7-----|
    |-----------7-----------7--|-----------7--7--------7--|
    |--------------------------|--7-----------------------|
    |--------------7-----------|--------------------------|
    |--7-----------------------|--------------------------|
          3                          4  


    |-----9========---7========|-----7-----------7--------|
    |--------7-----------7-----|--------10====------8=====|
    |-----------7-----------7--|-----------7-----------7--|
    |--7-----------------------|--------------------------|
    |--------------7-----------|--------------7-----------|
    |--------------------------|--7-----------------------|
                                        4


    |-----7-----------7--------|-----7-----------7--------|
    |--------7-----------7-----|--------7-----------7-----|
    |-----------7--7--------7--|-----------7-----------7--|
    |--7-----------------------|--7-----------------------|
    |--------------------------|--------------7-----------|
    |--------------------------|--------------------------|
                i  p               

     CVIII
    |-----8-----------8--------|-----8-----------8--------|
    |--------8-----------10----|--------12----------12----|
    |-----------8-----------8--|-----------8--8--------8--|
    |--------------------------|--8-----------------------|
    |--------------8-----------|--------------------------|
    |--8-----------------------|--------------------------|
                         3              4       
                                           i  p

     rubato --------3-------           ----------3---------
    |---------(8)----------------|---------(8)------------------|
    |-------12==(12)=10====8=====|-------(8)-(8)----------------|
    |----(8)-------(8)-----------|-----12======(12)=10====8=====|
    |----------------------------|------------------------------|
    |----------------------------|------------------------------|
    |--(8)-----------------------|--(8)-------------------------|
                                       4   
        p i m  a a  a

     accelerando
          ----------3---------           ----------3---------
    |---------(8)------------------|---------(8)------------------|
    |-------(8)-(8)----------------|-------(8)-(8)----------------|
    |-----12======(12)=10====8=====|-----12======(12)=10====8=====|
    |------------------------------|------------------------------|
    |------------------------------|------------------------------|
    |--(8)-------------------------|--(8)-------------------------|
       

          ----------3---------           ----------3---------
    |---------(8)------------------|---------(8)------------------|
    |-------(8)-(8)----------------|-------(8)-(8)----------------|
    |-----12======(12)=10====8=====|-----12======(12)=10====8=====|
    |------------------------------|------------------------------|
    |------------------------------|------------------------------|
    |--(8)-------------------------|--(8)-------------------------|


     a tempo
    |--------0=====------------|--------0=====------------|
    |--------0=====------------|--------0=====------------|
    |--12================5=====|--==================0=====|
    |--------------0===========|--------------0===========|
    |--------------------------|--------------------------|
    |--0=====------------------|--0=====------------------|
       4                 2
                                
                                rubato
                                     ---------3-------- 
    |--------5=================|--------(5)-----------------|
    |--------8=====7=====5=====|------(5)-(5)---------------|
    |--------5=================|-----8======(8)=7=====5=====|
    |--------5=================|----------------------------|
    |--------------------------|----------------------------|
    |--5=======================|--(5)-----------------------|
       1     4     3     1           4
                                  
                                  accelerando
          ---------3--------           ---------3--------
    |--------(5)-----------------|--------(5)-----------------|
    |------(5)-(5)---------------|------(5)-(5)---------------|
    |-----8======(8)=7=====5=====|-----8======(8)=7=====5=====|
    |----------------------------|----------------------------|
    |----------------------------|----------------------------|
    |--(5)-----------------------|--(5)-----------------------|

          ---------3--------      a tempo
    |--------(5)-----------------|--------0=====------------|
    |------(5)-(5)---------------|--------0=====------------|
    |-----8======(8)=7=====5=====|--8=================0=====|
    |----------------------------|--------------0===========|
    |----------------------------|--------------------------|
    |--(5)-----------------------|--0=====------------------|


                                              rubato
    |--------0=====------------|--------1=================|
    |--------0=====------------|--------1=================|
    |--==================0=====|--------5=====3=====1=====|
    |--------------0===========|--------------------------|
    |--------------------------|--------------------------|
    |--0=====------------------|--1=======================|
                                        4     2     1

                                           rall.- - - -
    |-----------1===========---|--------------0===========|
    |-----------1===========---|--------------0===========|
    |--3=====5===========3=====|--------5===========5=====|
    |--------------------------|--------------------------|
    |--------------------------|--------------------------|
    |--========================|--0===========------------|
       2     4           2              2           2


    |--------0=================|--------0-----------------|
    |--------0=================|--------0-----------------|
    |--============5=====0-h3--|--1=================1=====|
    |--0=====------------------|--------------0===========|
    |--------------------------|--------------------------|
    |--------------------------|--0=====------------------|
                   2        4     1

                   -----3-----
    |--------0====================|--------0=====------------|
    |--------0====================|--------0=====------------|
    |--=================0===h7====|--5=================5=====|
    |-----------------------------|--------------0===========|
    |-----------------------------|--------------------------|
    |--0=====---------------------|--0=====------------------|
                             4


    |--------0=================|--------0=====------------|
    |--------0=================|--------0=====------------|
    |--============0=====3=====|--1=================1=====|
    |--------------------------|--------------0===========|
    |--------------------------|--------------------------|
    |--0=====------------------|--0=====------------------|


                   -----3-----           morendo                     
    |--------0===================|--------0=====------------|
    |--------0===================|--------0=====------------|
    |--============0===h7========|--==================5=====|
    |----------------------------|--------------0===========|
    |----------------------------|--------------------------|
    |--0=====--------------------|--0=====------------------|
                        4                             1 


    |--------0=================||
    |--------0=================||
    |--========================||
    |--------------------------||
    |--------------------------||
    |--0=====------------------||
         

     
    **************************************

     KEY
     
     8-s7               slide from the 8th fret to the 7th
     5-h7               hammer on from the 5th fret to the 7th
     3-p0               pull off from the 3rd fret to the open string
     (5) (8) (12)       grace note
     <12>               natural harmonic
     ---3---            triplet
     CV / CVII / CVIII  hold barre on 5th / 7th / 8th frets
     
     left-hand fingering (below the tab) - from the sheet music
      1   1st (fore) finger
      2   2nd (index) finger
      3   3rd (ring) finger
      4   4th (little) finger (pinkie)

     right hand fingering (below the tab) - from the sheet music
      p   thumb (pulgar)
      i   index finger (indice)
      m   middle finger (medio)
      a   ring finger (anular)

     ||--    --||
     ||--    --||
     ||*-    -*||   repeat this section
     ||*-    -*||
     ||--    --||
     ||--    --||

******************************************************************************

Добавлено: 09.03.2012
Другие материалы по этой песне:
  • Аккорды и текст

Страница создана 09.03.2012
http://primanota.ru/carlo-domeniconi/op-19-koyunbaba-part-iii-cantabile-chords.htm
Привет, Гость.
Предлагаем пройти революционный курс по гитаре.
Подарок от PrimaNota.Ru, забирай!