PrimaNota.ru - самый крупный в мире бесплатный архив песенных текстов, аккордов, табулатур и нот


Carlo Capulong - Ikay Nandito Na - таба, видео

Регистрация Запомнить меня
Войти через:  Facebook Google Twitter Vk Yandex Mail.ru

Carlo Capulong - Ikay Nandito Na - таба, видео

Печатать
Просмотров: 68
-------------------------------------------------------------------------------
                             Ika'y nandito na - Carlo Capulong
-------------------------------------------------------------------------------
Tabbed by: john Amiel Lacuata
E-mail: johnamiel_1011@yahoo.com

for more tabs follow nyo ko sa twitter: Amiel1011

(hindi ako nag aaccept sa fb para iwas hack ahaha)

Tuning: Regular

!!!CAPO 1!!!!!

(G chord kayo para mas madali)
WARNING: HIndi to gayang gaya sa original kapa ko lang to pero pwede na din pang cover ;)


Follower nyo ko sa twitter (dm/pm me) gagawa ako youtube tutorial (mahirap din kaya yun AHAHA)


e|---------------------------------------------------------------------------|
B|-----------------------------2---------------------------------------------|
G|----------------2--0------------2--0----------0-------7--5--3--------------|
D|----0--0--0--------------0-----------------0----0--------------5--3--------|
A|---------------------------------------3--------------0--------------------|
E|--3----------3-------2-----------------------------------------------------|
                                        
e|---------------------------------3-------------------3---------------------|
B|---------------------------------3---------------------3-------------------|
G|-------0--2--0---------0--4------0----0------------------0-----------------|
D|----0----------------0-----------2-------2------------------0--------------|
A|---------------------------------2---------2-------------------------------|
E|--3---------------2--------------0-----------0-----------------------------|



follow me at twitter for more tabs and chords. @Amiel1011
mangangapa uli ako, for sir Carlo, GOOD JOB ON THE SONG :) ;)
Добавлено: 10.08.2014
Другие материалы по этой песне:
  • Аккорды и текст

Страница создана 10.08.2014
http://primanota.ru/carlo-capulong/ikay-nandito-na-chords.htm
Привет, Гость.
Предлагаем пройти революционный курс по гитаре.
Подарок от PrimaNota.Ru, забирай!