PrimaNota.ru - самый крупный в мире бесплатный архив песенных текстов, аккордов, табулатур и нот


Carlitos "La Mona" Jiménez - La Novia Blanca - аккорды и текст, видео

Регистрация Запомнить меня
Войти через:  Facebook Google Twitter Vk Yandex Mail.ru

Carlitos "La Mona" Jiménez - La Novia Blanca - аккорды и текст, видео

Печатать
Просмотров: 65
La Novia Blanca
Carlitos "La Mona" Jiménez
INTRO
   Am                        Dm
E---0-0--8-7-5--0-0--8-7-5---1-1-8-7-5--4-5-6-7------I
B---1-1---------1-1----------3-3---------------------I
G---2-2---------2-2----------2-2---------------------I
D---2-2---------2-2----------0-0---------------------I
A----------------------------------------------------I
E---0-0---------0-0----------------------------------I

E--8-7-8--7-5-0---8-7-8--7-5----8-7-8--7-5--10-10-8-7--8-7-5------I
B----------------------------6------------------------------------I
G-----------------------------------------------------------------I
D-----------------------------------------------------------------I
A-----------------------------------------------------------------I
E-----------------------------------------------------------------I

G6: 320030

Verso 1

Am                                 Dm
En la sala de urgencias de un hospital
              E7             Am
una madre llorando quiere salvar
Am                             Dm
a su hijo que pronto se va a cazar
          E7                    Am
con esa mujer que lo vino a buscar

con su vestido blanco esperando esta
el no pudo dejarla y lo envolvio
los doctores se esfuerzan para evitar
que la novia lo lleve hacia el altar

CORO

Am                    Dm
Por que es la novia blanca
           G                            C
que se fracciona gramo a gramo en la balanza
            F                        Dm
de un traficante que no sabe de las almas
          E7                      Am
que va camino hacia la muerte blanca

Am                    Dm
Por que es la novia blanca
             G                       C
cuanto mas pura mas te mata de esperanza
            F                         Dm
te va brindando cosas que jamas te alcanzan
         E7                           Am
para llevarte poco a poco hacia el altar

Verso 2

Ella puso el veneno de la ambicion
el corrio con los gastos de la traicion
se apagaron las luces de la ciudad
se murieron los sueños y el cielo se nublo

CORO
Добавлено: 04.05.2016
Другие материалы по этой песне:
  • Аккорды и текст

Страница создана 04.05.2016
http://primanota.ru/carlitos-la-mona-jimenez/la-novia-blanca-chords.htm
Привет, Гость.
Предлагаем пройти революционный курс по гитаре.
Подарок от PrimaNota.Ru, забирай!