PrimaNota.ru - самый крупный в мире бесплатный архив песенных текстов, аккордов, табулатур и нот


Carl Philipp Emanuel Bach - Solfreggettio2 - таба

Регистрация Запомнить меня
Войти через:  Facebook Google Twitter Vk Yandex Mail.ru

Carl Philipp Emanuel Bach - Solfreggettio2 - таба

Печатать
Просмотров: 120
			 SOLFEGGETTIO

							C.P.E.Bach

Standard tuning 4/4, play as fastest as you can

 |       |       |       |        |       |       |       |        
|--------------------------------|--------------------------------|
|--------------------------------|--------1-4-3-1-3-1-0-----------|
|------------------------0-------|------0---------------2-0-------|
|----1-----1-0---------0---3-1-0-|1---1---------------------3-1-0-|
|3-3-----3-----3-2---2-----------|--3-----------------------------|
|------3-----------3-------------|--------------------------------|

 |       |       |       |        |       |eleven |       |        
|------------------------3-1-----|--------8-11108-108-7-5-3-1-----|
|--------1-4-3-1-0---0-3-----4-3-|4-1-4-8---------------------4-3-|
|------0-----------0-------------|--------------------------------|
|1---1---------------------------|--------------------------------|
|--3-----------------------------|--------------------------------|
|--------------------------------|--------------------------------|

 |       |       |       |        |       |       |       |        
|----------8---------------------|----------6-----3---------------|
|4-1---------8---9-----------1-4-|3-----------6-3---------------3-|
|----0---------8-----------1-----|--3-----------------------0-3---|
|------1-----------------3-------|----3-0-----------1-----1-------|
|--------3-------------3---------|--------1-------------1---------|
|------------------1-4-----------|--------------------3-----------|

 |       |       |       |        |       |       |       |        
|--------------------------------|--------5-------2---------------|
|1-------1-------4-1-----4-1-----|3-1-------1-------1-----1-------|
|--2-1-2---2-1-2-----0-2-----0-2-|------2-------2-------2---2-----|
|--------------------------------|----4-------4-------0-------4-0-|
|--------------------------------|--------------------------------|
|--------------------------------|--------------------------------|

 |       |       |       |        |       |       |       |        
|--------------------------------|--------------------------------|
|--------------------------------|--------------------------------|
|3-------------------------------|--------0-3-2-0-2-0-------------|
|------0-----------0-----0-------|------0-------------4-2-0-------|
|----1-----1-0---------0---3-1-0-|1---1---------------------3-1-0-|
|--3-----3-----3-2---2-----------|--3-----------------------------|

 |       |       |       |        |       |       |       |        
|--------------------------------|--------3-6-5-3-5-3-2-0---------|
|------------------------3-1-----|------3-----------------3-1-----|
|--------0-3-2-0-------2-----3-2-|3-0-3-----------------------3-2-|
|------0---------4-0-4-----------|--------------------------------|
|1---1---------------------------|--------------------------------|
|--3-----------------------------|--------------------------------|

 |       |       |       |        |       |       |       |        
|--------3---------3-----------3-|----3-------3-------3-------3---|
|------3---3---------3-0---0-3---|1-------1-------0-------0-------|
|3-0-3-------3-0---------0-------|--0---0---0---0---0---0---0---0-|
|--------------------------------|1-------1-------0-------0-------|
|--------------------------------|--------------------------------|
|3---------------1---------------|--------------------------------|

 |       |       |       |        |       |       |       |        
|--------8---------8-----------8-|----8-------8---0---6---0---6---|
|4-1-4-8---8---------8-5---5-8---|6-------6-----------------------|
|------------8-5---------5-------|--5---5---5---5-0-5---5-0-5---5-|
|--------------------------------|6-------6-----------------------|
|3-------------------------------|--------------------------------|
|----------------6---------------|--------------------------------|

 |       |       |       |        |       |       |       |        
|4-------------------------------|--------------------------------|
|--------------------------------|--------------------------------|
|--------------------------------|----------1-0---0---------------|
|--------------------------------|--------3-----3---3-2-0---------|
|------3-----------3-----3-1-----|------3-----------------3-1-----|
|--1-4---1-4-3-1-0---0-3-----4-3-|4-1-4-----------------------4-3-|

 |       |       |       |        |       |       |       |        
|--------------------------------|--------1-4-3-1-3-1-0-----------|
|------------------------1-------|------1---------------3-1-------|
|----------1-0---------0---3-1-0-|1---1---------------------3-1-0-|
|--------3-----3-2---2-----------|--3-----------------------------|
|------3-----------3-------------|--------------------------------|
|4-1-4---------------------------|--------------------------------|

 |       |       |       |        |       |       |       |        
|--1-----------------------------|----------------4-1-0-1-3-1-0-1-|
|----1-----1---------------------|--------------------------------|
|1-----1-----1-----1-------------|--------------------------------|
|--------3-----3-----3-----3-----|--------------------------------|
|----------------3-----3-----3---|4-------------------------------|
|------------------------4-----4-|--------------------------------|

 |       |       |       |        |       |       |       |        
|--------------------------------|----------------101-3-4-3-1-----|
|--------------------------------|----------------------------4-3-|
|----------------1-------0-------|--------------------------------|
|------------------3-2-3---3-2-3-|--------------------------------|
|3-------------------------------|2-------------------------------|
|--------------------------------|--------------------------------|

 |       |       |       |        |       |       |       |        
|----8---6-----------------------|----3-------3-------1-------1---|
|--8---8---9-8-6-4-------4-------|1-------1-------0-------0-------|
|8-----------------------7-------|--0---0---0---0---0---0---0---0-|
|--------------------------------|1-------1-------0-------0-------|
|--------------------------------|--------------------------------|
|8-------1-------3-------3-------|--------------------------------|

 |       |       |       |        |       |       |       |        
|----0-------0-------8-------8---|--------------------6-------6---|
|------------------4---4---4---4-|----3-------3-------------------|
|3-0---0-3-0---0-2-------2-------|1-------1---------6---6---6---6-|
|----------------3-------3-------|--3---3---3---3-5-------5-------|
|3-------3-----------------------|1-------1-------6-------6-------|
|--------------------------------|--------------------------------|

 |       |       |       |        |       |       |       |        
|--------------------8-------8---|--------8-------3---------------|
|----1-------1-------------------|--1-4-8---8-4-1---4-1---6-3-0---|
|------------------5---5---5---5-|----------------------0---------|
|4-1---1-4-1---1-1-------1-------|1-----------------------------3-|
|--------------------------------|--------------------------------|
|4-------4-------2-------2-------|3-----------------------3-------|

 |       |       |       |        |       |       |       |        
|--------------------------------|--------------------------------|
|--------------------------------|--------1-4-3-1-3-1-0-----------|
|------------------------0-------|------0---------------2-0-------|
|1---1-----1-0---------0---3-1-0-|1---1---------------------3-1-0-|
|--3-----3-----3-2---2-----------|--3-----------------------------|
|------3-----------3-------------|--------------------------------|

 |       |       |       |        |       |       |       |        
|------------------------3-1-----|--------8-11107-8---------------|
|--------1-4-3-1-0---0-3-----4-3-|4-1-4-8-----------8-4-3-1-------|
|------0-----------0-------------|--------------------------0-----|
|1---1---------------------------|----------------------------1-0-|
|--3-----------------------------|--------------------------------|
|--------------------------------|--------------------------------|

 |       |       |       |        
|--------------------------------|
|--------------------------------|
|--------------------------------|
|--------------------------------|
|3-------------------------------|
|--------------------------------|


>From Samuel.Lumele (melesambo@hotmail.com)

     
Добавлено: 07.12.2013
Вам также может быть интересно:
Другие материалы по этой песне:
  • Аккорды и текст

Страница создана 07.12.2013
http://primanota.ru/carl-philipp-emanuel-bach/solfreggettio2-chords.htm
Привет, Гость.
Предлагаем пройти революционный курс по гитаре.
Подарок от PrimaNota.Ru, забирай!