PrimaNota.ru - самый крупный в мире бесплатный архив песенных текстов, аккордов, табулатур и нот


Carl Philipp Emanuel Bach - Solfeggio In C Minor - таба, видео

Регистрация Запомнить меня
Войти через:  Facebook Google Twitter Vk Yandex Mail.ru

Carl Philipp Emanuel Bach - Solfeggio In C Minor - таба, видео

Печатать
Просмотров: 338
Solfeggio in C Minor (A.K.A Solfeggietto)

This is a song by CPE Bach. I transcribed it from the piano to guitar.I swear 
I spent practically my whole life picking out every note precisely so please, 
rate it highly. On another note, this song uses some advanced techniques,
most of which need no explaining. However, in the song you WILL need to learn
sweep-picking. If you don't know how to do that, then this may be a bit 
advanced for you. If you find it to hard, set it aside for awhile. But, with
enough practice, you should be able to learn it somewhat decently. 

Also note that there are many leaps across the fretboard. This makes the song
a bunch more difficult. The best way to tackle that, is to practice the 2 
notes that are apart together without playing any surrounding notes. I find 
this highly effective while practicing.

One last note: I don't have the guitar version available for download just 
yet, but you can still play along to the original music piece. You can prob-
ably bye the cd at any music store. I transcribed it note for note, so it 
should sound alright. Well, that just about wraps it up!

HAPPY PLAYING!!! :)

Tempo: 190 bpm

     S S S S S S S S S S S S S S S S    S S S S S  S  S S  S S S  S S S S S  
E||----------------------------------|----------8-11-10-8-10-8-7------------|
B||--------------------------8-6-4---|--4-----8------------------10-8-6-4---|
G||----------5-8-7-5-4---4-7-------7-|----5-8-----------------------------7-|
D||--------5-----------5-------------|--------------------------------------|
A||--6-3-6---------------------------|--------------------------------------|
E||----------------------------------|--------------------------------------|


  S S S S S  S  S S S S S  S  S  S  S  S  
----------8-11-10-8-7---7-10-15-13-11-10-|
--------8-------------8------------------|
--8-5-8----------------------------------|
-----------------------------------------|
-----------------------------------------|
-----------------------------------------|


   S  S  S  S  S  S  S  S  S  S  S  S  S  S  S  S  
--11----11-15-20-23-22-20-22-20-19-17-15-13-11-10-|
-----13-------------------------------------------|
--------------------------------------------------|
--------------------------------------------------|
--------------------------------------------------|
--------------------------------------------------|


   S  S  S S S  S  S  S  S S S S S S  S  S  
--11-----------20-15-11-16-----------------|
-----13--------------------------6-9-13-16-|
--------12-8-5-----------------5-----------|
-----------------------------6-------------|
---------------------------8---------------|
-------------------------------------------|


   S  S  S  S  S  S  S  S  S S S S S S S  S  
-----------------18-13----15-----------6-10-|
--15-11----------------15------------8------|
--------10-------------------------8--------|
-----------12------------------5-8----------|
--------------13-------------6--------------|
--------------------------------------------|


  S S S S S S S S  S S S  S  S S S  S  
--8-5---5-8-5---5-12-8------12-8------|
------9-------9--------8-10------8-10-|
--------------------------------------|
--------------------------------------|
--------------------------------------|
--------------------------------------|


   S S S  S  S  S S  S  S S S  S S  S S S    S S S S S S S S S S S S S S S S  
--10-8------17---------13-8------8--------|--6-------------------------------|
-------7-10----13-7-10--------10---10-6---|--------------------------3-1-----|
----------------------------7-----------7-|----------0-3-2-0-------2-----3-2-|
------------------------------------------|--------0---------4-0-4-----------|
------------------------------------------|------1---------------------------|
------------------------------------------|----3-----------------------------|


  S S S S S S S S S S S S S S S S    S S S S S S S S S S S S  S S S  S  
----------3-6-5-3-5-3-2-0---------|----------3-6-5---------5-10-8-6----|
--------3-----------------3-1-----|--------3-------8-7---7----------10-|
--3-0-3-----------------------3-2-|--3-0-3-------------7---------------|
----------------------------------|------------------------------------|
----------------------------------|------------------------------------|
----------------------------------|------------------------------------|


  S S S  S  S  S  S  S  S  S  S  S  S  S  S  S  
--6---6-10-15-18-17-15-17-15-14----------------|
----8---------------------------17-15----------|
--------------------------------------17-15-14-|
-----------------------------------------------|
-----------------------------------------------|
-----------------------------------------------|


   S  S  S  S  S  S  S  S S  S  S  S  S  S  S  S  
--------------15------------15----------------15-|
-----------15----15------------15----------15----|
--15----15----------15------------16----16-------|
-----17----------------17------------17----------|
-------------------------------------------------|
-------------------------------------------------|


  S S S S S S S S S S S S S S S S    S S S S S S S S S S S S S S S S  
----------------------------------|--------3-8-3-------8-3-------3-8-|
------8-------8-------6-------6---|--4---4-------4---------5---5-----|
----------------------------------|----5-----------5---------5-------|
----5---5---5---5---5---5---5---5-|----------------------------------|
----------------------------------|----------------------------------|
----------------------------------|----------------------------------|


  S S S S S S S S S S S S S S S S    S S S S S S S S S S S S S S S S  
------8-------8-------6-------6---|--4-------------------------------|
----------------------------------|----------------------------------|
----5---5---5---5---5---5---5---5-|------------1-0---------0-5-3-----|
----------------------------------|----------3-----3-2---2-------6-5-|
----------------------------------|--------3-----------3-------------|
----------------------------------|----1-4---------------------------|


  S S S S S S S S S S S S S S S S    S S S S S S S S S S S S S S S S  
------------4-3---3---------------|------------4-3---------3-8-6-----|
----------6-----6---6-5-3---------|----------6-----6-5---5-------9-8-|
--------5-----------------5-3-----|--------5-----------5-------------|
--6-3-6-----------------------6-5-|--6-3-6---------------------------|
----------------------------------|----------------------------------|
----------------------------------|----------------------------------|


  S S S S  S  S  S  S  S  S  S  S  S  S  S  S  
--------8-13-16-15-13-15-13-12-10-------------|
--9-6-9---------------------------13-11-------|
----------------------------------------13-12-|
----------------------------------------------|
----------------------------------------------|
----------------------------------------------|


   S  S  S  S  S  S  S  S  S  S  S  S S  S  S S  
-----13-----------------------------------------|
--------11-------11-----------------------------|
--13-------13-12----13-12----13-12------12------|
--------------------------10-------10-6----10-6-|
------------------------------------------------|
------------------------------------------------|


  H         S  S  S  S  S  S  S  S    H         S  S S  S  S  S S  S  
-----------16-13-12-13-15-13-12-13-|---------------------------------|
-----------------------------------|---------------------------------|
-----------------------------------|-----------13-10-9-10-12-10-9-10-|
-----------------------------------|---------------------------------|
-----------------------------------|---------------------------------|
-----------------------------------|---------------------------------|


  H         S  S  S  S  S  S  S  S     S  S  S  S  S  S  S  S  Q     Q     
-----------22-13-15-16-15-13-11-10-|--11-15-20-15-18-16-15-13-11----10----|
-----------------------------------|--------------------------------------|
-----------------------------------|--------------------------------------|
-----------------------------------|--------------------------------------|
-----------------------------------|--------------------------------------|
-----------------------------------|--------------------------------------|


  S  S  S  S S  S  S  S S  S  S  S S  S  S  S  
-------15---------15---------13---------13----|
----------------------------------------------|
----12----12---12----12---12----12---12----12-|
----------------------------------------------|
----------------------------------------------|
----------------------------------------------|


  S  S  S  S S  S  S  S S  S  S  S S  S  S  S  
-------12---------12---------20---------20----|
----------------------------------------------|
----12----12---12----12---20----20---20----20-|
----------------------------------------------|
----------------------------------------------|
----------------------------------------------|


  S  S  S  S S  S  S  S S  S  S  S S  S  S  S  
-------10---------10---------18---------18----|
----------------------------------------------|
----10----10---10----10---18----18---18----18-|
----------------------------------------------|
----------------------------------------------|
----------------------------------------------|


  S S S S S S S S S  S  S  S S  S  S  S  
------8-------8--------20---------20----|
----------------------------------------|
----8---8---8---8---17----17---17----17-|
----------------------------------------|
----------------------------------------|
----------------------------------------|


  S  S  S  S  S  S  S  S  S  S  S  S  S  S  S  S  
----------15-20-15-------15----------13----------|
-------16----------16-------16----------15-------|
----17----------------17-------17----------16----|
----------------------------------17----------15-|
-------------------------------------------------|
-------------------------------------------------|


   S S S S S S S S S S S S S S S S    S S S S S  S  S S  S S S  S S S S S  
-----------------------------------|----------8-11-10-8-10-8-7------------|
---------------------------8-6-4---|--4-----8------------------10-8-6-4---|
-----------5-8-7-5-4---4-7-------7-|----5-8-----------------------------7-|
--13-----5-----------5-------------|--------------------------------------|
-----3-6---------------------------|--------------------------------------|
-----------------------------------|--------------------------------------|


  S S S S S  S  S S S S S  S  S  S  S  S  
----------8-11-10-8-7---7-10-15-13-11-10-|
--------8-------------8------------------|
--8-5-8----------------------------------|
-----------------------------------------|
-----------------------------------------|
-----------------------------------------|


   S  S  S  S  S  S  S  S  S  S  S  S  S  S  S  S     Q    H        Q      
--11----11-15-20-23-22-19-20-15-11----------------|----------------------||
-----13----------------------------15-13----------|----------------------||
-----------------------------------------12-------|----------------------||
--------------------------------------------13-12-|----------------------||
--------------------------------------------------|--15------------------||
--------------------------------------------------|----------------------||


Heres what the second guitar plays:

E||-------|-------|-------|-------|-------|-------|-------|-------|-------|
B||-------|-------|-------|-------|-------|-------|-------|-------|-------|
G||-------|-------|-------|-------|-------|-------|-------|-------|-------|
D||-------|-------|-------|-------|-------|-------|-------|-------|-------|
A||-------|-------|-------|-------|-------|-------|-------|-------|-------|
E||-------|-------|-------|-------|-------|-------|-------|-------|-------|


                          Q    Q    Q    Q       Q    Q    Q    Q     
-------|-------|-------|----------------------|----------------------|
-------|-------|-------|----------------------|----------------------|
-------|-------|-------|----------------------|--5----5----4----4----|
-------|-------|-------|--5---------3---------|--1----1----0----0----|
-------|-------|-------|----------------------|----------------------|
-------|-------|-------|--3---------1---------|----------------------|



  Q    Q    Q    Q       Q    Q    Q    Q                                     
----------------------|--1----1----0----0----|-------|-------|-------|-------|
----------------------|----------------------|-------|-------|-------|-------|
--5---------3---------|--1----1----0----0----|-------|-------|-------|-------|
----------------------|----------------------|-------|-------|-------|-------|
--3---------1---------|----------------------|-------|-------|-------|-------|
----------------------|----------------------|-------|-------|-------|-------|


          W                   W                   W                 
-------|-------------------|-------------------|-------------------|
-------|-------------------|-------------------|-------------------|
-------|-------------------|-------------------|-------------------|
-------|-------------------|-------------------|-------------------|
-------|--4----------------|--3----------------|--2----------------|
-------|-------------------|-------------------|-------------------|


  Q    Q    Q    Q       Q    Q    Q    Q       Q    Q    Q    Q     
----------------------|----------------------|----------------------|
----------------------|----------------------|----------------------|
----------------------|--5----5----4----4----|--3----3----2----2----|
-------3----5---------|--1----1----0----0----|------------3----3----|
--3-------------------|----------------------|--3----3--------------|
-----------------3----|----------------------|----------------------|


  Q    Q    Q    Q       Q    Q    Q    Q       Q    Q    Q    Q          
----------------------|--2----2--------------|----------------------|----|
----------------------|------------4----4----|--4-------------------|----|
--1----1----0----0----|--1----1--------------|----------------------|----|
------------1----1----|------------4----4----|--5-------------------|----|
--1----1--------------|----------------------|----------------------|----|
----------------------|----------------------|-----------------3----|----|


          S S S S S S S S S S S S S S S S    S S S S S S S S S S S S S S S S  
-------|----------------------------------|----------------------------------|
-------|----------------------------------|----------------------------------|
-------|----------------------------------|----------------------------------|
-------|----------------------------------|----------------------------------|
-------|--3-3-3-3-3-3-3-3-3-3-3-3-3-3-3-3-|--3-3-3-3-3-3-3-3-3-3-3-3-3-3-3-3-|
-------|----------------------------------|----------------------------------|
        (The 3's are optional)

  Q    S S S S S S S S S S S S   
-------------------------------||
-------------------------------||
--5----------------------------||
--5----------------------------||
--3----------------------------||
-------------------------------||

Well thats about it. Enjoy it.
If you master this you'll surely melt some faces!

PEACE OUT!
Добавлено: 30.06.2012
Другие материалы по этой песне:
  • Аккорды и текст

Страница создана 30.06.2012
http://primanota.ru/carl-philipp-emanuel-bach/solfeggio-in-c-minor-chords.htm
Привет, Гость.
Предлагаем пройти революционный курс по гитаре.
Подарок от PrimaNota.Ru, забирай!