PrimaNota.ru - самый крупный в мире бесплатный архив песенных текстов, аккордов, табулатур и нот


Карл Орф - Carmina Burana - таба, видео

Регистрация Запомнить меня
Войти через:  Facebook Google Twitter Vk Yandex Mail.ru

Карл Орф - Carmina Burana - таба, видео

Печатать
Просмотров: 439
Авторы музыки: Carl Orff

tuning - D A D G B E


E||------------1-1-1------|---------------3-3-3--|-----1-1-1------0-0-0---|
B||------------3-3-3------|---------------3-3-3--|-----3-3-3------1-1-1---|
G||*-----------2-2-2------|---------------3-3-3--|-----2-2-2------2-2-2---|
D||*--0--------3-3--------|------0--------0------|-----3---0------0---2---|
A||--0--------------------|-----0----------------|--------------------0---|
D||-0---------------------|----0-----------------|------------------------|


-------------------||-----------5-5-5------|--------------5----|
-------------------||-----------5-5-5------|--------------5----|
------------------*||-----------5-5-5------|--------------5----|
------------------*||--2--------7---7------|-------------------|
-------------------||--0-------------------|--------------0----|
-------------------||-2--------------------|-------------------|


--6----5----3----1----|--0----------------||---------------------------|
--6----5----3----3----|--3----------------||---------------------------|
--5----5----3----2----|--3----------------||*--------------------------|
--3---------5---------|--0----------------||*--------3-----3-----2-----|
-------3---------0----|-------------------||------5-----5-----5-----5--|
----------------------|-------------------||---0-----------------------|


--------------------------|--------------------------|
--------------------------|--------------------------|
--------------------------|--------------------------|
--2-----------------3-----|--3-----2-----2-----------|
-----5-----5-----5-----5--|-----5-----5-----5-----5--|
--------0-----0-----------|--------------------0-----|


--------------------------|------------------------|-------------------------|
--------------------------|------------------------|-------------------------|
--------------------------|-------------0----------|-------------------------|
--------3-----3-----2-----|--3---------------------|--3-----2----------------|
-----5-----5-----5-----5--|-----5----5-----5----5--|-----5-----5--5----5-----|
--0-----------------------|------------------------|----------------------0--|


--------------------------|--------------------------|
--------------------------|--------------------------|
--------------------------|--------------------------|
-----------3-----3-----2--|-----2-----------------3--|
--5--0--5-----5-----5-----|--5-----5-----5-----5-----|
--------------------------|-----------0-----0--------|


--------------------------|--------------------------|------------------------|
--------------------------|--------------------------|------------------------|
--------------------------|--------------------------|----------------0-------|
-----3-----2-----2--------|-----------3-----3-----2--|-----3------------------|
--5-----5-----5-----5-----|--5-----5-----5-----5-----|--5-----5----5-----5----|
-----------------------0--|-----0--------------------|------------------------|


-------------------------|--------------------------|-------------------------|
-------------------------|--------------------------|-------------------------|
-----------0-------------|-----------2-----2-----0--|-----0----------------2--|
-----3-------------------|-----------3-----3-----2--|-----2----------------3--|
--5-----5-----5----5-----|--5--0--0-----0-----0-----|--0-----0-----3--0-------|
----------------------0--|--------------------------|-----------3-------------|


--------------------------|-------------------------|------------------------|
--------------------------|-------------------------|------------------------|
-----2-----0-----0--------|----------2-----2-----0--|-----2----------0-------|
-----3-----2-----2--------|----------3-----3-----2--|-----3----------2-------|
--0-----0-----0-----0-----|--3--0-------0-----0-----|--0-----0----0-----0----|
-----------------------3--|-------------------------|------------------------|


--------------------------||-----------1-----1-----0--|
--------------------------||-----------3-----3-----1--|
-----2-----0-------------*||*----------2-----2-----2--|
-----3-----2-------------*||*-----0-------0-----0-----|
--0-----0-----0----0------||---3----------------------|
----------------------3---||--------------------------|


-----0----------------1--|-----1-----0-----0--------|----------1-----1-----0--|
-----1----------------3--|-----3-----1-----1--------|----------3-----3-----1--|
-----2----------------2--|-----2-----2-----2--------|----------2-----2-----2--|
--0-----0--------0-------|--0-----0-----0-----0-----|-----0-------0-----0-----|
--------------3----------|--------------------------|--3----------------------|
-----------3-------------|-----------------------3--|-------------------------|


-----1----------3-------|-----1-----0--------------||-----1-----3-------------|
-----3----------3-------|-----3-----1--------------||-----3-----3-------------|
-----2----------2-------|-----2-----2-------------*||-----2-----2-------------|
--0-----0----0-----0----|--0-----0-----0----0-----*||--0-----0-----0----0-----|
------------------------|--------------------------||----------------------0--|
------------------------|-----------------------3--||-------------------------|


|-----------5-----5-----3--|-----3----------------5--|
|-----------5-----5-----5--|-----5----------------5--|
|*----------5-----5-----5--|-----5----------------5--|
|*-----0-------0-----0-----|--0-----0--------0-------|
|---3----------------------|-----------0--3----------|
|--------------------------|-------------------------|


-----5-----3-----3--------|----------5-----5-----3--|-----1----------3-------|
-----5-----5-----5--------|----------5-----5-----5--|-----3----------3-------|
-----5-----5-----5--------|----------5-----5-----5--|-----2----------3-------|
--0-----0-----0-----0-----|-----0-------0-----0-----|--0-----0----0-----0----|
-----------------------0--|--3----------------------|------------------------|
--------------------------|-------------------------|------------------------|


-----1-----3--------------||-----5--6--5--3--1----0--|---------------1----|
-----3-----3--------------||-----5--6--6--5--3----3--|----3----------3----|
-----2-----3-------------*||-----5--5--5--5--2----2--|----2----------2----|
--0-----0-----0----0-----*||--0----------------------|----0----------0----|
----------------------0---||-------------------------|---------------0----|
--------------------------||-------------------------|--------------------|


--1----0----0----------|-------1----1----0----|--0---------------1----|
--3----1----1----------|-------3----3----1----|--1---------------3----|
--2----2----2----------|-------2----2----2----|--2---------------2----|
--0----0----2----------|--0----0----0----0----|--2----------0----0----|
--0----0----0-------3--|-------0----0----0----|--0-------3-------0----|
-----------------3-----|----------------------|-------3---------------|


--1----0----1--------|--3--------1----0----|-------------1----1----|
--3----1----3--------|--3--------3----1----|-------------3----3----|
--2----2----2--------|--2--------2----2----|-------------2----2----|
--0----0----0--------|--0--------0----0----|--------0----0----0----|
--0----0----0--------|--0--------0----0----|-----3-------0----0----|
---------------------|---------------------|--0--------------------|


--0----0---------------|--1----1----0----0----|-------------1----1----|
--1----1---------------|--3----3----1----1----|-------------3----3----|
--2----2---------------|--2----2----2----2----|-------------2----2----|
--0----2----------0----|--0----0----0----2----|--------0----0----0----|
--0----0-------3-------|--0----0----0----0----|-----3-------0----0----|
------------0----------|----------------------|--0--------------------|


--0----1--------3----|------1----3--------|-------------5----5----|
--1----3--------3----|------3----3--------|-------------5----5----|
--2----2--------2----|------2----3--------|-------------5----5----|
--0----0--------0----|------0----0--------|--------0----7----7----|
--0----0--------0----|------0----0--------|--0--3-------0----0----|
---------------------|--------------------|-----------------------|


--3----3---------------|--5----5----3----3----|-------------5----5----|
--5----5---------------|--5----5----5----5----|-------------5----5----|
--5----5---------------|--5----5----5----5----|-------------5----5----|
--5----5----------0----|--7----7----5----5----|--------0----7----7----|
------------0--3-------|--0----0--------------|--0--3-------0----0----|
-----------------------|----------------------|-----------------------|


--3----5----6--5--3--1--|--1--0---------------|------||
--5----5----6--6--5--3--|--3--1----3----------|------||
--5----5----5--5--5--2--|--2--2----2----------|------||
--5----5----0--0-----0--|--0--0----0----------|------||
---------------------0--|--0--0----0----------|------||
------------------------|---------------------|------||


Добавлено: 24.03.2012
Вам также может быть интересно:
Другие материалы по этой песне:

Страница создана 24.03.2012
http://primanota.ru/carl-orff/carmina-burana-chords.htm
Привет, Гость.
Предлагаем пройти революционный курс по гитаре.
Подарок от PrimaNota.Ru, забирай!