PrimaNota.ru - самый крупный в мире бесплатный архив песенных текстов, аккордов, табулатур и нот


Carissas Wierd - Sofisticated Fuck Princess Please Leave Me Alone - таба, видео

Регистрация Запомнить меня
Войти через:  Facebook Google Twitter Vk Yandex Mail.ru

Carissas Wierd - Sofisticated Fuck Princess Please Leave Me Alone - таба, видео

Печатать
Просмотров: 95
Carissa's Wierd - Sofisticated Fuck Princess Please Leave Me Alone
Tuning: Standard D#/Eb Special
To be used as just a guide.

Intro/Verse
D#|-----------------------------------------------------------------------------------|
A#|-----------------------------------*-----------------------------------------------|
G#|(-----------------0~)-----------------------0~-------------------------0~----------|
C#|(----4-5-4----4-5---)---5-4----4-5-4----4-5--------5-4----4-5-4----4-5-------------|
G#|(--2--------2-------)--------2--------2-----------------2--------2-----------------|
D#|(-------------------)--------------------------------------------------------------|
     ^Beginning of Verse 1 and Verse 2 only, in place of *
D#-----------------------------------------------------------------------|
A#|----------------------------------------------------------------------|
G#|------------------------0~---------------------------0~---------------|
C#|--5-4------5-4-----4-5---------5-4------5-4-----4-5-------------------|      x5
G#|--------------------------------------2-------------------------------|
D#|-------2~-------2-------------------2--------2------------------------|   


Pre-Chorus (Leading directly into Chorus)
D#|--------------------------------------------------------------|
A#|--------------------------------------------------------------|
G#|------------7-7-7-7-7-----------------------------------------|
C#|--4-4-4-4-4-4-4-4-4-4-----------------------------------------|
G#|----------------------------12-12-12-12----9--9--9--9---------|
D#|----------------------------12-12-12-12---10-10-10-10---------|

Chorus
D#|----------------------------------------------------------------------|
A#|----------------------------------------------------------------------|
G#|----------------------------------------------------------------------|
C#|----------------------------------------------------------------------|
G#|-7--(x8)---12-(x8)---9-(x16)----7-(x8)---12-(x8)----9~-(x8)-----------|
D#|-9---------12--------10---------9--------12---------10~---------------|

Intro

Pre-Chorus (With what sounds like a small variation on the amount of times the 12's and 10/9's are played,
but you're smart. You got this.)

Chorus 
D#|--------------------------------------------------------------------------------------------|
A#|--------------------------------------------------------------------------------------------|
G#|--------------------------------------------------------------------------------------------|
C#|--------------------------------------------------------------------------------------------|
G#|-7--(x8)---12-(x8)---9-(x16)--7-(x8)---12-(x8)----9-(x16)----7-(x8)----12 (x8)---9-(x8)-----|
D#|-9---------12--------10-------9--------12---------10---------9---------12--------10---------|

Bridge
D#|-----------------------------------------------------------------------------------------|
A#|-----------------------------------------------------------------------------------------|
G#|-----------------------------------------------------------------------------------------|
C#|-5-5-5-5-5-5-5-5-5-4---5-5-5-5-5-5-5-5-5-4---5-5-5-5-5-5-5-5-5-4---5-5-5-5-5-5-5-5-5-4---|
G#|-2-2-2-2-2-2-2-2-2-2---2-2-2-2-2-2-2-2-2-2---2-2-2-2-2-2-2-2-2-2---2-2-2-2-2-2-2-2-2-2---|  
D#|-----------------------------------------------------------------------------------------|
    . . . . . . . .       . . . . . .           . . . . . .           . . . . . .
And you can continue with that if you like while the second part of the bridge takes over.

Bridge Part 2
D#|---------------------------------------------------------------------------|
A#|-5-5-5-5-5-5-5-5-5-5-5-5-5-5-5-5-5-5-5-5-(palm muted)----------------------|
G#|---------------------------------------------------------------------------|
C#|---------------------------------------------------------------------------|
G#|---------------------------------------------------------------------------|
D#|---------------------------------------------------------------------------|

D#|---------------------------------------------------------------|
A#|-7-7-8-7-7-7-7h8-------7-7-8-7-7-7-7h8-------------------------|
G#|-----------------0~---------------------0~---------------------|
C#|---------------------------------------------------------------|
G#|---------------------------------------------------------------|
D#|---------------------------------------------------------------|

D#|------------------------------------------------------------------|
A#|-7-7-8-7-7-7-7-7-7h8------7-7-8-7-7-7-7-7-7h8---------------------|
G#|---------------------0~-----------------------0~------------------|
C#|------------------------------------------------------------------|
G#|------------------------------------------------------------------|
D#|------------------------------------------------------------------|

D#|--------------------------------------------------------------------------------------|
A#|-7-7-8-7-7-7-7h8-------7-7-8-7-7-7-7h8------7-7-8-7-7-7-7h8------7-7-8-7-7-7-7h8------|
G#|-----------------0~--------------------0~-------------------0~-------------------0~---|
C#|--------------------------------------------------------------------------------------|
G#|--------------------------------------------------------------------------------------|
D#|--------------------------------------------------------------------------------------|

D#|-------------------------------------------------------------------------|
A#|-7-7-8-7-7-7-7-7-7h8--------7-7------------------------------------------|
G#|---------------------0~--------------------------------------------------|
C#|-------------------------------------------------------------------------|
G#|-----------------------------------12-12-12-12---9--9--9--9--------------|
D#|-----------------------------------12-12-12-12--10-10-10-10--------------|

Chorus 3
D#|------------------------------------------------------------------------------------------|
A#|------------------------------------------------------------------------------------------|
G#|------------------------------------------------------------------------------------------|
C#|------------------------------------------------------------------------------------------|
G#|-7--(x8)---12-(x8)---9-(x16)--7-(x8)---12-(x8)---9-(x16)---7-(x8)---12 (x8)---9-(x8)------|
D#|-9---------12--------10-------9--------12--------10--------9--------12--------10----------|

D#|---------------------------------------|
A#|---------------------------------------|
G#|---------------------------------------|
C#|---------------------------------------|
G#|---------------------9~----------------|
D#|-End on that last---10~----------------|
Добавлено: 17.12.2015
Вам также может быть интересно:
Другие материалы по этой песне:
  • Аккорды и текст

Страница создана 17.12.2015
http://primanota.ru/carissas-wierd/sofisticated-fuck-princess-please-leave-me-alone-chords.htm
Привет, Гость.
Предлагаем пройти революционный курс по гитаре.
Подарок от PrimaNota.Ru, забирай!