PrimaNota.ru - самый крупный в мире бесплатный архив песенных текстов, аккордов, табулатур и нот


Carissas Wierd - It Was Probably Green - таба, видео

Регистрация Запомнить меня
Войти через:  Facebook Google Twitter Vk Yandex Mail.ru

Carissas Wierd - It Was Probably Green - таба, видео

Печатать
Просмотров: 159
Carissa's Wierd - It Was Probably Green  
Album: Songs About Leaving

God, I love this song.

e|--3--1--0------3-------------|
B|-----------1-3----1-3--------|
G|--0------------0-------------|
D|-(0)-3--2----0-0--2-0-3----0-|
A|-----------3----------3------|
E|--3------------3------1------|

Green takes the leaves, snow takes the sea
It reminded me how awful things can be
Trying to recall your tiny voice
Until fever breaks, it's all that I can hear
Counting down the numbers of the days
Was it the same amount of roses on your grave?
Finally I brought myself to sing these words
After the snow we can finally sleep
If you could be the trees, I'll be the leaves

e|--------:-----1-0------3--1--0----|
B|-1------:-1-3------1------------3-|
G|--------:-----0--------0-----0----|
D|-3-OR-3-:--------------------2----|
A|------3-:-----2--------3----------|
E|-1----1-:-------------------------|

After she died 
We decided to believe
That her favorite color was
Probably green

On the day she died
In our hearts we did believe
That her favorite color was
Probably green
Добавлено: 17.05.2012
Другие материалы по этой песне:
  • Аккорды и текст

Страница создана 17.05.2012
http://primanota.ru/carissas-wierd/it-was-probably-green-chords.htm
Привет, Гость.
Предлагаем пройти революционный курс по гитаре.
Подарок от PrimaNota.Ru, забирай!