PrimaNota.ru - самый крупный в мире бесплатный архив песенных текстов, аккордов, табулатур и нот


Cargo - Ziua Vrajitoarelor - текст песни, таба, видео

Регистрация Запомнить меня
Войти через:  Facebook Google Twitter Vk Yandex Mail.ru

Cargo - Ziua Vrajitoarelor - текст песни, таба, видео

Печатать
Просмотров: 120
		   Subject : Ziua Vrajitoarelor
          by CARGO (a famous romanian group)

Comments:
This trancription sounds really like the original.
There are maybe a
couple of Hammer-Pulling Off missing in the Rhy.
Fig.B1 and Fig.B2
There is the use of some effect on the Riff 1, but i
cannot 
tell which one.
If you need some precisions about this tab feel free
to ask. Enjoy!
           
INTRO  :
******** 

   Guit.I (clean)  
      E                      F          E             
        F
T--|---------------------------------|---------------------------------|
---|---------------------------------|---------------------------------|
A--|---------------------------------|---------------------------------|
---|---------------------------------|---------------------------------|
B--|---2-----2-----2-----2-----0-----|---2-----2-----2-----2-----0-----|
---|-0---0-0---0-0---0-0---0-1---1-1-|-0---0-0---0-0---0-0---0-1---1-1-|
   |                                                  
                |
   |                                                  
                |
   Guit.II (Overdrive)                                
                |
   |                                   E              
           F    |
T--|---------------------------------|---------------------------------|
---|---------------------------------|---------------------------------|
A--|---------------------------------|---------------------------------|
---|---------------------------------|-x-x-----------------------------|
B--|---------------------------------|-2-2------------------------3----|
---|---------------------------------|-0-0------------------------1----|
                                       p.m            
                 
  Guit.I (clean)
   E                       F         E                
      F    
 
---------------------------------|---------------------------------|
 
---------------------------------|---------------------------------|
 
---------------------------------|---------------------------------|
 
---------------------------------|---------------------------------|
 
---2-----2-----2-----2-----0-----|---2-----2-----2-----2-----------|
 
-0---0-0---0-0---0-0---0-1---1-1-|-0---0-0---0-0---0-0---0-1-------|
                                                      
              |
                                                      
              |
  Guit.II (Overdrive)                                 
              |
   E                                 E                
              |
 
---------------------------------|-------------------------19~~~~-\|
 
---------------------------------|---------------------------------|
 
---------------------------------|---------------------------------|
 
-x-x-----------------------------|-x-x-----------------------------|
 
-2-2-----------------------------|-2-2-----------------------------|
 
-0-0-----------------------------|-0-0-----------------------------|
   p.m                               p.m


INTRO II :
**********

   Guit.I (Overdrive)
   Guit. Rhy.
Fig.A----------------------------------------------------*
      E                      E F E F   E              
        E F E F
T--|---------------------------------|---------------------------------|
---|---------------------------------|---------------------------------|
A--|---------------------------------|---------------------------------|
---|---------------------------------|---------------------------------|
B--|-2---2---2-----2---2-----2-3-2-3-|-2-------2-----2---2-----2-3-2-3-|
---|-0---0---0---0-0---0---0-0-1-0-1-|-0---0-0-0-0-0-0---0---0-0-1-0-1-|
   |            p.m       p.m             p.m-  p.m*  
                |
   |                                                  
                |
   Guit.II (Overdrive)                                
                |
   |                                                  
                |
T--|---------------------------------|---------------------------------|
---|---------------------------------|---------------------------------|
A--|---------------------------------|--------------------( Riff 1  )-|
---|---------------------------------|---------------------------------|
B--|---------------------------------|---------------------------------|
---|---------------------------------|---------------------------------|


   Guit.I (Overdrive)
   w/ Guit. Rhy. Fig.A
T--|---------------------------------|---------------------------------|
---|---------------------------------|---------------------------------|
A--|---------------------------------|---------------------------------|
---|---------------------------------|---------------------------------|
B--|-2---2---2-----2---2-----2-3-2-3-|-2-------2-----2---2-----2-3-2-3-|
---|-0---0---0---0-0---0---0-0-1-0-1-|-0---0-0-0-0-0-0---0---0-0-1-0-1-|
   |            p.m       p.m             p.m-  p.m*  
                |
   Guit.II (Overdrive)                                
                |
   |                                                  
                |
T--|---------------------------------|---------------------------------|
---|---------------------------------|---------------------------------|
A--|---------------------------------|--------------------- Riff 1  --|
---|---------------------------------|---------------------------------|
B--|---------------------------------|---------------------------------|
---|---------------------------------|---------------------------------|

                                                      
/             \
                                                     
/     Riff 1    \
                                                     /
                \
                                                    / 
                 \
                                                
-----------------------|
                                                
---b1/4----------------|
                                                
-16------16(17)16(17)--|
                                                
-----------------------|
                                         Grad.
bend.....  Trem.......
                                         (Volume Pedal
maybe involved)
   

  Guit.I (Overdrive)      
      E                      E F E F   E 
T--|---------------------------------|---------------------------------|
---|---------------------------------|---------------------------------|
A--|---------------------------------|---------------------------------|
---|---------------------------------|---------------------------------|
B--|-2---2---2-----2---2-----2-3-2-3-|-2-------2-----2-----------------|
---|-0---0---0---0-0---0---0-0-1-0-1-|-0---0-0-0-0-0-0-----------------|
   |            p.m       p.m             p.m*  p.m*  
                |
 
 


INTRO II (Part 2) :
***************************  
      
   Guit.I (Overdrive)
   Guit. Rhy.
Fig.B----------------------------------------------------*
      E                                 E
T--|---------------------------------|---------------------------------|
---|---------------------------------|---------------------------------|
A--|*--------------------------------|--------------------------------*|
---|*--------------------------------|--------------------------------*|
B--|-2---2---2-----2-----2---2-------|-2---2---2-----2-----2---2-------|
---|-0---0---0---0-0---0-0-0-0-0-0-0-|-0---0---0---0-0---0-0-0-0-0-0-0-|
   |             *     *   *   *****               *  
  *   *   ***** |
   |            p.m   p.m p.m  p.m                p.m 
 p.m p.m  p.m   |
   |                                                  
                |
   Guit.II (Overdrive)                                
                |
   Guit. Rhy.
Fig.B1--------------------------------------------------*|
   |                                   E              
                |
T--|-----------------3---3---3---2-3-|-5---5---5---3-2-3---2h3p2-------|
---|-5---5---5---3-5-----------------|---------------------------5~~---|
A--|*--------------------------------|--------------------------------*|
---|*--------------------------------|--------------------------------*|
B--|---------------------------------|---------------------------------|
---|---------------------------------|---------------------------------|
  

   Guit.I (Overdrive)
      E                                 E     
T--|---------------------------------|---------------------------------|
---|---------------------------------|---------------------------------|
A--|*----------------------      Guit.I     -------------------------*|
---|*---------------------- Guit. Rhy. Fig.B -------------------------*|
B--|---------------------------------|---------------------------------|
---|---------------------------------|---------------------------------|
   |                                                  
                |
   Guit.II (Overdrive)                                
                |
   Guit. Rhy.
Fig.B2--------------------------------------------------*|
   | E                                 E              
                |
T--|-7---7---7---5-3-5---5---5---3---|-5---5---5-------3-5---3---------|
---|-------------------------------7-|-------------5-7---------7-5-----|
A--|*--------------------------------|--------------------------------*|
---|*--------------------------------|--------------------------------*|
B--|---------------------------------|---------------------------------|
---|---------------------------------|---------------------------------|




Pre-verse1:
***********

   Guit.I (Overdrive)
     E                                  E        
T--|----------------------------------|----------------------------------|
---|----------------------------------|----------------------------------|
A--|*---------------------------------|---------------------------------*|
---|*---------------------------------|---------------------------------*|
B--|-2~~~~~~~~~~~~~~~~~~~~~~~~~~~~~~~-|-(2)~~~~~~~~~~~~~~~~~~~~~~~~~~~~~-|
---|-0~~~~~~~~~~~~~~~~~~~~~~~~~~~~~~~-|-(0)~~~~~~~~~~~~~~~~~~~~~~~~~~~~~-|
   |                                                  
                  |
   |                                                  
                  |
   Guit.II (Overdrive)                                
                  |
   Guit. Rhy. Fig.C------------------*                
                  |
   | E                                  E             
                  |
T--|----------------------------------|----------------------------------|
---|----------------------------------|----------------------------------|
A--|*----9---9---9-------9---9---11-9-|-----       Guit.II       ------*|
---|*9-9---9---9---9-9-9---9---9------|-----    Guit.  Rhy. Fig.C  ------*|
B--|----------------------------------|----------------------------------|
---|----------------------------------|----------------------------------|
    p.m******************************
   
    



Verse1:
*******

   Guit.I (Overdrive)
     E                                  E       
T--|----------------------------------|----------------------------------|
---|----------------------------------|----------------------------------|
A--|*---------------------------------|---------------------------------*|
---|*---------------------------------|---------------------------------*|
B--|-2~~~~~~~~~~~~~~~~~~~~~~~~~~~~~~~-|-(2)~~~~~~~~~~~~~~~~~~~~~~~~~~~~~-|
---|-0~~~~~~~~~~~~~~~~~~~~~~~~~~~~~~~-|-(0)~~~~~~~~~~~~~~~~~~~~~~~~~~~~~-|
   |                                                  
                  |
   |                                                  
                  |
   Guit.II (Overdrive)                                
                  |
   | E                                  E             
                  |
T--|----------------------------------|----------------------------------|
---|----------------------------------|----------------------------------|
A--|*----        Guit.II       -------|-----       
Guit.II       ------*|
---|*----    Guit. Rhy. Fig.C  -------|-----    Guit.
Rhy. Fig.C  ------*|
B--|----------------------------------|----------------------------------|
---|----------------------------------|----------------------------------|
   |                                                  
                  |
  "Intr-o zi de Joi..........                         
                 "|
                                                      
    

        E                                 E           
      
T--|---------------------------------|---------------------------------|
---|---------------------------------|---------------------------------|
A--|*-------------------   Guit.I (Overdrive) -----------------------*|
---|*-------------------  w/ Guit. Rhy. Fig.B -----------------------*|
B--|---------------------------------|---------------------------------|
---|---------------------------------|---------------------------------|
   |                                                  
                |
   |            p.m   p.m p.m  p.m                p.m 
 p.m p.m  p.m   |
   |                                                  
                |
   Guit.II (Overdrive)                                
                |
   Guit. Rhy.
Fig.B1--------------------------------------------------*|
   |                                   E              
                |
T--|---------------------------------|---------------------------------|
---|---------------------------------|---------------------------------|
A--|*-------------------   Guit.II (Overdrive)
-----------------------*|
---|*-------------------  w/ Guit. Rhy. Fig.B1
-----------------------*|
B--|---------------------------------|---------------------------------|
---|---------------------------------|---------------------------------|



Verse2:
*******

   Guit.I (Overdrive)
     E                                  E       
T--|----------------------------------|----------------------------------|
---|----------------------------------|----------------------------------|
A--|*---------------------------------|---------------------------------*|
---|*---------------------------------|---------------------------------*|
B--|-2~~~~~~~~~~~~~~~~~~~~~~~~~~~~~~~-|-(2)~~~~~~~~~~~~~~~~~~~~~~~~~~~~~-|
---|-0~~~~~~~~~~~~~~~~~~~~~~~~~~~~~~~-|-(0)~~~~~~~~~~~~~~~~~~~~~~~~~~~~~-|
   |(^- discreet the 1st time)                        
                  |
   |                                                  
                  |
   Guit.II (Overdrive)                                
                  |
   | E                                  E             
                  |
T--|----------------------------------|----------------------------------|
---|----------------------------------|----------------------------------|
A--|*----        Guit.II       -------|-----       Guit.II       ------*|
---|*----    Guit. Rhy. Fig.C  -------|-----    Guit.  Rhy. Fig.C  ------*|
B--|----------------------------------|----------------------------------|
---|----------------------------------|----------------------------------|
   |                                                  
                  |
  "Frunzele fosneau .........                         
                 "|

Chorus 1:
*********

   Guit.I (Overdrive)                                 
        (repeat x4)
T--|---------------------------------|---------------------------------|
---|---------------------------------|---------------------------------|
A--|*-------------------   Guit.I (Overdrive) -----------------------*|
---|*-------------------  w/ Guit. Rhy. Fig.B -----------------------*|
B--|---------------------------------|---------------------------------|
---|---------------------------------|---------------------------------|
   |                                                  
                |
   |                                                  
                |
   Guit.I (Overdrive)                                 
                |
T--|---------------------------------|---------------------------------|
---|---------------------------------|---------------------------------|
A--|*-------------------   Guit.II (Overdrive) -----------------------*|
---|*-------------------  w/ Guit. Rhy. Fig.C -----------------------*|
B--|---------------------------------|---------------------------------|
---|---------------------------------|---------------------------------|
   |                                                  
                |
  "Azi e ziua lor, ................                   
               "|



Interlude:
**********

   Guit.I (Overdrive)
T--|---------------------------------|---------------------------------|
---|---------------------------------|---------------------------------|
A--|--------------------   Guit.I (Overdrive) ------------------------|
---|--------------------  w/ Guit. Rhy. Fig.A ------------------------|
B--|---------------------------------|---------------------------------|
---|---------------------------------|---------------------------------|
   |                                                  
                |
   Guit.II (Overdrive)                                
                |
T--|---------------------------------|---------------------------------|
---|---------------------------------|---------------------------------|
A--|---------------------------------|------------------- Riff 1  ---|
---|---------------------------------|---------------------------------|
B--|---------------------------------|---------------------------------|
---|---------------------------------|---------------------------------|
   |                                                  
                |


   Guit.I (Overdrive)  
      E                      E F E F   E         
T--|---------------------------------|---------------------------------|
---|---------------------------------|---------------------------------|
A--|---------------------------------|---------------------------------|
---|---------------------------------|---------------------------------|
B--|-2---2---2-----2---2-----2-3-2-3-|-2-------2-----x-2-2-2-2-2-2-2-2-|
---|-0---0---0---0-0---0---0-0-1-0-1-|-0---0-0-0-0-0-0-0-0-0-0-0-0-0-0-|
   |            p.m       p.m             p.m* 
p.m*****               |


Chorus 2:
*********

   Guit.I & II (Overdrive)
     G               A                   E 
T--|---------------------------------|---------------------------------|
---|---------------------------------|---------------------------------|
A--|---------------------------------|---------------------------------|
---|-5~~~~~~~~~~~~~~-7~~~~~~~~~~~~~~-|---------------------------------|
B--|-5~~~~~~~~~~~~~~-7~~~~~~~~~~~~~~-|---x-2---x-2---x-2---x-2---x-2---|
---|-3~~~~~~~~~~~~~~-5~~~~~~~~~~~~~~-|---x-0---x-0---x-0---x-0---x-0---|
   |                                   
p.m*************************   |
  "Oooooooooo, Ooo, Oooooooooo. Ai un mare noroc!     
 

   Guit.I & II (Overdrive)
     G               A                   E 
T--|---------------------------------|---------------------------------|
---|---------------------------------|---------------------------------|
A--|---------------------------------|---------------------------------|
---|-5~~~~~~~~~~~~~~-7~~~~~~~~~~~~~~-|---------------------------------|
B--|-5~~~~~~~~~~~~~~-7~~~~~~~~~~~~~~-|---x-2---x-2---x-2---x-2---x-2---|
---|-3~~~~~~~~~~~~~~-5~~~~~~~~~~~~~~-|---x-0---x-0---x-0---x-0---x-0---|
   |                                   
p.m*************************   |
   Oooooooooo, Ooo, Oooooooooo. Ghinioane deloc       
               "|



   Guit.I & II (Overdrive)
     G               A                 A              
A      F#        
T--|---------------------------------|---------------------------------|
---|---------------------------------|---------------------------------|
A--|---------------------------------|---------------------------------|
---|-5~~~~~~~~~~~~~~-7~~~~~~~~~~~~~~-|-7~~~~~~~~~~~~~~-7~~~~~-4~~~~~~~-|
B--|-5~~~~~~~~~~~~~~-7~~~~~~~~~~~~~~-|-7~~~~~~~~~~~~~~-7~~~~~-4~~~~~~~-|
---|-3~~~~~~~~~~~~~~-5~~~~~~~~~~~~~~-|-5~~~~~~~~~~~~~~-5~~~~~-2~~~~~~~-|
   |                                                  
                |
  "Tot ce Vezi ..............................         
                


 G               A                 A
 
---------------------------------|---------------------------------|
 
---------------------------------|---------------------------------|
 
---------------------------------|---------------------------------|
 
-5~~~~~~~~~~~~~~-7~~~~~~~~~~~~~~-|-7~~~~~~~~~~~~~~-----------------|
 
-5~~~~~~~~~~~~~~-7~~~~~~~~~~~~~~-|-7~~~~~~~~~~~~~~-----------------|
 
-3~~~~~~~~~~~~~~-5~~~~~~~~~~~~~~-|-7~~~~~~~~~~~~~~-----------------|
   Po    -    ti sa-ntrebi daca    Vre  -   i         
Vrajitoarele "|





   Guit.I (Overdrive)                             
T--|---------------------------------|---------------------------------|
---|---------------------------------|---------------------------------|
A--|*-------------------   Guit.I (Overdrive) -----------------------*|
---|*-------------------  w/ Guit. Rhy. Fig.B -----------------------*|
B--|---------------------------------|---------------------------------|
---|---------------------------------|---------------------------------|
   |                                                  
                |
   |                                                  
                |
   Guit.II (Overdrive)                                
                |
T--|---------------------------------|---------------------------------|
---|---------------------------------|---------------------------------|
A--|*-------------------   Guit.II (Overdrive) -----------------------*|
---|*-------------------  w/ Guit. Rhy. Fig.B1 -----------------------*|
B--|---------------------------------|---------------------------------|
---|---------------------------------|---------------------------------|



   Guit.I (Overdrive)                             
T--|---------------------------------|---------------------------------|
---|---------------------------------|---------------------------------|
A--|*-------------------   Guit.I (Overdrive) -----------------------*|
---|*-------------------  w/ Guit. Rhy. Fig.B -----------------------*|
B--|---------------------------------|---------------------------------|
---|---------------------------------|---------------------------------|
   |                                                  
                |
   |                                                  
                |
   Guit.II (Overdrive)                                
                |
T--|---------------------------------|---------------------------------|
---|---------------------------------|---------------------------------|
A--|*-------------------   Guit.II (Overdrive) -----------------------*|
---|*-------------------  w/ Guit. Rhy. Fig.B2 -----------------------*|
B--|---------------------------------|---------------------------------|
---|---------------------------------|---------------------------------|



play Chorus1
************ 

play Chorus2
************


Outro:
******

   Guit.I (Overdrive)                             
T--|---------------------------------|---------------------------------|
---|---------------------------------|---------------------------------|
A--|*-------------------   Guit.I (Overdrive) -----------------------*|
---|*-------------------  w/ Guit. Rhy. Fig.B -----------------------*|
B--|---------------------------------|---------------------------------|
---|---------------------------------|---------------------------------|
   |                                                  
                |
   |                                                  
                |
   Guit.II (Overdrive)                                
                |
T--|---------------------------------|---------------------------------|
---|---------------------------------|---------------------------------|
A--|*-------------------   Guit.II (Overdrive) -----------------------*|
---|*-------------------  w/ Guit. Rhy. Fig.B1 -----------------------*|
B--|---------------------------------|---------------------------------|
---|---------------------------------|---------------------------------|
   |                                                  
                |
                                                
"Vrajitoarele " 
                                                 (2nd
time only) 


   Guit.I (Overdrive)                             
T--|---------------------------------|---------------------------------|
---|---------------------------------|---------------------------------|
A--|--------------------   Guit.I (Overdrive) ------------------------|
---|--------------------  w/ Guit. Rhy. Fig.B ------------------------|
B--|---------------------------------|---------------------------------|
---|---------------------------------|---------------------------------|
   |                                                  
                |
   |                                                  
                |
   Guit.II (Overdrive)                                
                |
T--|---------------------------------|---------------------------------|
---|---------------------------------|---------------------------------|
A--|--------------------   Guit.II (Overdrive) ------------------------|
---|--------------------  w/ Guit. Rhy. Fig.B2 ------------------------|
B--|---------------------------------|---------------------------------|
---|---------------------------------|---------------------------------|
                                                      
                |
                                                 
"Vrajitoarele "      |


   Guit.I (Overdrive)
     E                                 E          
T--|---------------------------------|---------------------------------|
---|---------------------------------|---------------------------------|
A--|---------------------------------|---------------------------------|
---|---------------------------------|---------------------------------|
B--|-2---2---2-----2-----2---2-------|-2---2---------------------------|
---|-0---0---0---0-0---0-0-0-0-0-0-0-|-0---0---------------------------|
   |             *     *   *   *****                  
                |
   |            p.m   p.m p.m  p.m                    
                |
   |                                                  
                |
   Guit.II (Overdrive)                                
                |
   |                                                  
                |
T--|-7---7---7---5-3-5---5---5---3---|-5---5---------------------------|
---|-------------------------------7-|---------------------------------|
A--|---------------------------------|---------------------------------|
---|---------------------------------|---------------------------------|
B--|---------------------------------|---------------------------------|
---|---------------------------------|---------------------------------|
                                                      
            
					          "mmm, mmmm,mmmm, mmmm,
  Guit.II
  -------------x---3-5--3h5p3------|
  -------------5-7------------7-5--|
  ---------------------------------|
  ---------------------------------|
  ---------------------------------|
  ---------------------------------|

  mmmm"



Because this song is not really structured into proper
verses and
choruses, I have cut it in possible verses and
choruses
in order to ease the transcription. Here is how I have
structured
the lyrics to match the tabs above.

     
Добавлено: 27.09.2013
Другие материалы по этой песне:

Страница создана 08.04.2012
http://primanota.ru/cargo/ziua-vrajitoarelor-chords.htm
Привет, Гость.
Предлагаем пройти революционный курс по гитаре.
Подарок от PrimaNota.Ru, забирай!