PrimaNota.ru - самый крупный в мире бесплатный архив песенных текстов, аккордов, табулатур и нот


Carey, Mariah - Silent Night - текст песни, бас-таба, видео

Регистрация Запомнить меня
Войти через:  Facebook Google Twitter Vk Yandex Mail.ru

Carey, Mariah - Silent Night - текст песни, бас-таба, видео

Печатать
Просмотров: 112
Авторы музыки: Franz Xaver Gruber
Авторы текста: John Freeman Young, Sir David Willcocks, Josef Mohr
-------------------------------------------------------------------------------
                             SILENT NIGHT - Mariah Carey
-------------------------------------------------------------------------------

Tabbed By : Chris Raw

Tuning: Standard EADG

G|---------------------5-5-2~--3-3---------3-2-------------------3-2----------|
D|-3-5-3-----3-5-3-----------------3~--5-5-----5--3-5-3----5-5-------5--3-5-3-|
A|-------5~~-------5-~~----------------------------------5-------------------5|
E|----------------------------------------------------------------------------|

G|-5--5--8-5-2-3~/7~--3------------------------------------------------------|
D|-----------------------3-0--3-1--------------------------------------------|
A|--------------------------------3-1~~--------------------------------------|
E|---------------------------------------------------------------------------|


| /  slide up
| \  slide down
| h  hammer-on
| p  pull-off
| ~  vibrato
| +  harmonic
| x  Mute note
===============================================================================
Добавлено: 03.10.2015
Другие материалы по этой песне:
  • Аккорды и текст

Страница создана 25.05.2012
http://primanota.ru/carey-mariah/silent-night-chords.htm
Привет, Гость.
Предлагаем пройти революционный курс по гитаре.
Подарок от PrimaNota.Ru, забирай!