PrimaNota.ru - самый крупный в мире бесплатный архив песенных текстов, аккордов, табулатур и нот


Cardio Beat - Эскимос - аккорды и текст, видео

Регистрация Запомнить меня
Войти через:  Facebook Google Twitter Vk Yandex Mail.ru

Cardio Beat - Эскимос - аккорды и текст, видео

Печатать
Просмотров: 111
Эскимос
Cardio Beat
Каподастр ставим на второй лад.

Табулатура:
Em
e------------------------------------------------------------------------------------------
B------------0------------0-------------------------------0------------------0-------------
G-------0-----------0----------------0-------------0----------------0--------------------0-
D------------------------------------------------------------------------------------------
A------------------------------------------------------------------------------------------
E----0-----------0--------------0----------0----------------0-------------------0----------

Am
e-----------------------------------------------------------------------------------
B------------1------------1--------------------------1----------------1-------------
G-------2-------------2--------------2----------2------------------2--------------2-
D-----------------------------------------------------------------------------------
A---0------------0--------------0-----------0----------------0-----------------0----
E-----------------------------------------------------------------------------------

Asus2/G                                    B7
e------------------------------------------------------------------------------------------
B------------0------------0-------------------------------0------------------0-------------
G-------2-----------2----------------2-------------2----------------0--------------------0-
D---------------------------------------------1--------------------------------------------
A---------------------------------------------------------------2------------------2-------
E----3-----------3--------------3----------------------------------------------------------

Куплет 1:
Em
Не сталь, не лед
Не та, не тот
Am
Не ты, не я 
Asus2/G    B7
А ты     ни я 

Em
Не видно дней за окнами 
Am
А я за ней 
      Asus2/G   B7
Мне все        равно, мне все равно 

Припев:
             C
Ведь я тут один 
                       Am
Будто бы эскимос на льдине 
Посылаю тебе SOS
            G          D5
А ты найди меня, найди меня 

                  F             
Ведь я тут один и так близко 
G          C  Em
Горизонта линия 
         F Ab
Ищи меня там 
         C B7
Ищи меня там

Куплет 2:
    Em
Раздетым лег на снег
               Am
Растерянности нет
Теней и растений,
       Asus2/G   B7
Теленовостей, гостей

             Em
Меня никто не навестит
Опали звуки
                    Am
Льдом покрылись потолки
Немеют руки
          Asus2/G  B7
Расширяются белки

Припев

Проигрыш: Em

              C
Тада-да та-дада
           Asus2/G  B7
Тада-да та-дада

Em

              C
Тада-да та-дада
              Asus2/G  B7
Тада-да та-дада

Припев
Добавлено: 30.05.2016
Другие материалы по этой песне:
  • Аккорды и текст

Страница создана 30.05.2016
http://primanota.ru/cardio-beat/eskimos-chords.htm
Привет, Гость.
Предлагаем пройти революционный курс по гитаре.
Подарок от PrimaNota.Ru, забирай!