PrimaNota.ru - самый крупный в мире бесплатный архив песенных текстов, аккордов, табулатур и нот


Cardigans - In The Round - текст песни, бас-таба, видео

Регистрация Запомнить меня
Войти через:  Facebook Google Twitter Vk Yandex Mail.ru

Cardigans - In The Round - текст песни, бас-таба, видео

Печатать
Просмотров: 191
G|-----------------------------------------------|
D|88888---5-7----------88888---5-7---------------|
A|------8-----55555555-------8-----55555555------|  verse
E|-----------------------------------------------|

"I do my dance..."
G|-------------------------------|
D|-8888------5555----------------|
A|------8888------5555-----------|
E|-------------------------------|

"I gotta get it right..."

G|-------------------------|
D|-8--5-----8--5-----------|
A|-------8--------8--------|
E|-------------------------|
Добавлено: 15.03.2012
Другие материалы по этой песне:

Страница создана 28.02.2012
http://primanota.ru/cardigans/in-the-round-chords.htm
Привет, Гость.
Предлагаем пройти революционный курс по гитаре.
Подарок от PrimaNota.Ru, забирай!