PrimaNota.ru - самый крупный в мире бесплатный архив песенных текстов, аккордов, табулатур и нот


Cardigans - Give Me Your Eyes - текст песни, таба, видео

Регистрация Запомнить меня
Войти через:  Facebook Google Twitter Vk Yandex Mail.ru

Cardigans - Give Me Your Eyes - текст песни, таба, видео

Печатать
Просмотров: 184
-------------------------------------------------------------------------------
                             Give Me Your Eyes - Cardigans
-------------------------------------------------------------------------------
Tabbed by: yonico12344
Email: yonico12344@walla.com
Tuning: EADGBe (stadnad)

Capo on 3rd Fret  -  All Chords and Tabs ralated to the Capo

Intro:
e|-------0---|-------0-----|-0-----0-----|-------0-----|--------------|
B|-----3---3-|-3---3---3---|-----3---3---|-3-------3---|------------2-|
G|---5-------|---5-------5-|---5-------5-|---4-------4-|-4h5----2-----|
D|-0---------|-0-----------|-2-----------|-0-----------|-----2--------|
A|-----------|-------------|-------------|-----2-------|--------------|
E|-----------|-------------|-------------|-------------|--------------|

e|----------------------------------------------------------|
B|----------------------------------------------------------|
G|----------------------------------------------------------| x2
D|-12/14-12-12-10/12-12-12-12-12-10/12-12-10/12-12-12-12-12-|     
A|----------------------------------------------------------|    
E|----------------------------------------------------------| 


e|---------------------------------|
B|---------------------------------|
G|---------------------------------|
D|-2-2-2-2-2-2-2-2-2-2-2-2-2-2-2-2-|
A|-0-0-0-0-0-0-0-0-0-0-0-0-0-0-0-0-|
E|---------------------------------|
     

Verse 1:
e|-----------------|-----------------|-----------------|-----------------|
B|-----------------|-----------------|-----------------|-----------------|
G|-----------------|-----------------|-----------------|-----------------|
D|-----------------|-----------------|-----------------|-----------------| 
A|-3-3-3-3-3-3-5-5-|-3-3-3-3-3-3-3-3-|-3-3-3-3-3-3-3-3-|-3-3-3-3-3-3-3-3-|
E|-----------------|-----------------|-----------------|-----------------|
     Oh girl, look at yourself, what have you done          What have you
 
e|-----------------|-----------------|-----------------|-----------------|
B|-----------------|-----------------|-----------------|-----------------|
G|-----------------|-----------------|-----------------|-----------------|
D|-----------------|-----------------|-------------2-2-|-2-2-2-2-2-2-2-2-|
A|-3-3-3-3-3-3-3-3-|-3-3-3-3-3-3-3-3-|-5-5-5-5-5-5-----|-----------------|
E|-----------------|-----------------|-----------------|-----------------|
become             Well, I couldn't say

e|-----------------|-----------------|-----------------|-----------------|
B|-----------------|-----------------|-----------------|-----------------|
G|-----------------|-----------------|-----------------|-----------------|
D|-2-2-2-2-2-2-5-5-|-3-3-3-3-3-3-3-3-|-3-3-3-3-3-3-2-2-|-----------------|
A|-----------------|-----------------|-----------------|-3-3-3-3-3-3-3-3-|
E|-----------------|-----------------|-----------------|-----------------|
      Slow down and think of your heart, where do you go

e|-----------------|-----------------|-----------------|-----------------|
B|-----------------|-----------------|-----------------|-----------------|
G|-----------------|-----------------|-----------------|-----------------|
D|-3-3-3-3-3-3-2-2-|-----------------|-5-5-5-5-5-5-7-7-|-7-7-7-7-7-7-7-7-|
A|-----------------|-3-3-3-3-3-3-3-3-|-----------------|-----------------|
E|-----------------|-----------------|-----------------|-----------------|
Now, how am I supposed to know, I'm always looking away


Chorus:
              A5  C5                   F5  C5 
Give me your eyes so I can see me straight
              F5
Give me your eyes
C5                       G5  A5
I can't tell night from day
              A5  C5                   F5  C5  
Give me your eyes so I can see me straight
              F5  C5           D5      Riff 1 
Give me your eyes and watch me walk away
D5         E5     Riff 2
Yeah, yeah, yeah 

Riff 1:                                  Riff 2:
e|-------------------------------|      e|---------------------------------|
B|-------------------------------|      B|---------------------------------|
G|-------------------------------|      G|---------------------------------|
D|-10/12-12-12-10/12-12-12-10/12-|      D|---------------------5---5h7-7-7-|
A|-------------------------------| x4   A|-0-0-3-0h3h5-3-/7--7---7---------|
E|-------------------------------|      E|---------------------------------|



Verse 2:
e|-----------------|-----------------|-----------------|------------------|
B|-----------------|-----------------|-----------------|------------------|
G|-----------------|-----------------|-----------------|------------------| 
D|-----------------|-----------------|-----------------|------------------|
A|-3-3-3-3-3-3-5-5-|-3-3-3-3-3-3-3-3-|-/8-8-8-8-8-8-8-8|-\3-3-3-3-3-3-3-3-|
E|-----------------|-----------------|-----------------|------------------|
      I took a look at myself  Nothing inside

e|------------------|------------------|-----------------|-----------------|
B|------------------|------------------|-----------------|-----------------|
G|------------------|------------------|-----------------|-----------------|
D|------------------|------------------|-5-5-5-5-5-5-7-7-|-7-7-7-7-7-7-7-7-|
A|-/8-8-8-8-8-8-8-8-|-\3-3-3-3-3-3-3-3-|-----------------|-----------------|
E|------------------|------------------|-----------------|-----------------|
   Except for cigarettes and wine where there should be a life

e|-----------------|-----------------|-----------------|-----------------|
B|-----------------|-----------------|-----------------|-----------------|
G|-----------------|-----------------|-----------------|-----------------|
D|-7-7-7-7-7-7-5-5-|-----------------|-3-3-3-3-3-3-2-2-|-----------------|
A|-----------------|-3-3-3-3-3-3-3-3-|-----------------|-3-3-3-3-3-3-3-3-|
E|-----------------|-----------------|-----------------|-----------------|
       You've been watching me for a while and you like what you see

e|-----------------|-----------------|-----------------|-----------------|
B|-----------------|-----------------|-----------------|-----------------|
G|-----------------|-----------------|-----------------|-----------------|
D|-3-3-3-3-3-3-2-2-|-----------------|-5-5-5-5-5-5-7-7-|-7-7-7-7-7-7-7-7-|
A|-----------------|-3-3-3-3-3-3-3-3-|-----------------|-----------------|
E|-----------------|-----------------|-----------------|-----------------|
It's in the eyes of the beholder now give them to me


Chorus 2:
             A5  C5                   F5  C5
Give me your eyes so I can see me straight
             F5   C5                     D5                    
Give me your eyes that seem to light my face
F5         C5
Yeah, yeah, yeah 


Bridge:
    F5            C5
Oh mirror, mirror upon the wall
   F5              C5  
Who is the fairest of them all
 F5            C5 
Mirror, mirror made no reply
F5                C5                       D5
Mirror went black and cracked from side to side
D5
Yeah, yeah, yeah 


Outro:
e|---------------------------------|---------------------------------|
B|---------------------------------|---------------------------------|
G|---------------------------------|---------------------------------|
D|---------------------5---5-------|---------------------5---5---5---|      
A|-0-0-3-0h3h5-3-/7--7---7---7-5-3-|-0-0-3-0h3h5-3-/7--7---7---7---7-|  
E|---------------------------------|---------------------------------|      

e|-------------------------------|
B|-------------------------------|
G|-------------------------------| x4
D|-10/12-12-12-10/12-12-12-10/12-|     
A|-------------------------------|    
E|-------------------------------| 


e|---------------------------------|
B|---------------------------------|
G|---------------------------------|
D|-2-2-2-2-2-2-2-2-2-2-2-2-2-2-2-2-|
A|-0-0-0-0-0-0-0-0-0-0-0-0-0-0-0-0-|
E|---------------------------------|
     


| /  slide up
| \  slide down
| h  hammer-on
| p  pull-off
| ~  vibrato
| +  harmonic
| x  Mute note
===============================================================================
Добавлено: 11.05.2012
Другие материалы по этой песне:
  • Аккорды и текст

Страница создана 11.05.2012
http://primanota.ru/cardigans/give-me-your-eyes-chords.htm
Привет, Гость.
Предлагаем пройти революционный курс по гитаре.
Подарок от PrimaNota.Ru, забирай!