PrimaNota.ru - самый крупный в мире бесплатный архив песенных текстов, аккордов, табулатур и нот


Cardigans - Fine - текст песни, таба, бас-таба, видео

Регистрация Запомнить меня
Войти через:  Facebook Google Twitter Vk Yandex Mail.ru

Cardigans - Fine - текст песни, таба, бас-таба, видео

Печатать
Просмотров: 212
Авторы музыки: Peter Svensson
Авторы текста: Magnus Sveningsson
-------------------------------------------------------------------------------
                             Fine - The Cardigans
-------------------------------------------------------------------------------
Tabbed by: yonico12344
Email: yonico12344@walla.com

Tuning: standard

Intro:
e|-----------------------------------|
B|-----------------------------5---7-|
G|-0-------0-2-4--/5-4-2-0-----5---7-|
D|-------0---------------------5---7-|
A|-----------------------------3---5-|
E|-----------------------------------|

e|-------------------------------------------------------------------------------------|
B|-------------------------------------------------------------------------------------|
G|-------------------------3br------------------3br---------------3br------------------|
D|-0--1-0---0-----0--1-0-1------2br--0--1-0-1-0------2br-0--1-0-1------2br--0--1-0---0-|
A|-------------------------------------------------------------------------------------|
E|-------------------------------------------------------------------------------------|

Verse 1:

Riff1:                              Riff2:
 e|-------------------------------|  e|-----------------------------------|
 B|-------------------3-----------|  B|-----------------------------------|
 G|----4-----2~-----0---4-------2-|  G|-2h4---0-4---2-------0-------------|
 D|-0----0h1----0h2----------5----|  D|-----------4---4-0h2---2p0---4---0-|
 A|-------------------------------|  A|-----------------------------------|
 E|-------------------------------|  E|-----------------------------------|

Riff3:
 e|---------------11---------------------------|
 B|-------15---------------16b--16b---13b15r13-|
 G|-14b16----(16)----16r14---------------------|
 D|--------------------------------------------|
 A|--------------------------------------------|
 E|--------------------------------------------|

G   B      E     D        Riff1
    Upon a roof below the moon
G   B        E         D        Riff2
    nearby a park-bench in the sun
G   B        E        D         Riff3
    upon the stairway to your room
G   B            E          D          G 
    Why won't you wrap your life around
         B        E       D     C   B  
    those certain words I just found
           C    B
    I just found
    C    B
    Found
           C    D     E
    I just found

Chorus:
e|------------------------------------------------------|
B|---------------------------------------x----5--x----7-|
G|---0-2-4-2-0---0-2-4h5p4-2---0-2-4-2-0-x---5---x---7--|
D|-0-----------1-------------2-----------x--5----x--7---| x3
A|---------------------------------------x-3-----x-5----|
E|------------------------------------------------------|

I wear your golden ring inside
suits me very fine
I wear your golden heart in mine
suits me very fine


Bridge:
e|------------------------------------------------------------------|
B|------------------------------------------------------------------|
G|----------3br------------------3br---------------3b-3b-3b-3br-1---|
D|0--1-0-1------2br--0--1-0-1-0------2br-0--1-0-1-----------------1-|
A|------------------------------------------------------------------|
E|------------------------------------------------------------------|


| /  slide up
| \  slide down
| h  hammer-on
| p  pull-off
| ~  vibrato
| +  harmonic
| x  Mute note
===============================================================================
Добавлено: 06.05.2012
Другие материалы по этой песне:

Страница создана 06.05.2012
http://primanota.ru/cardigans/fine-chords.htm
Привет, Гость.
Предлагаем пройти революционный курс по гитаре.
Подарок от PrimaNota.Ru, забирай!