PrimaNota.ru - самый крупный в мире бесплатный архив песенных текстов, аккордов, табулатур и нот


Cardigans - Choke - текст песни, бас-таба, видео

Регистрация Запомнить меня
Войти через:  Facebook Google Twitter Vk Yandex Mail.ru

Cardigans - Choke - текст песни, бас-таба, видео

Печатать
Просмотров: 157
Авторы музыки: Peter Svensson
Авторы текста: Magnus Sveningsson
-------------------------------------------------------------------------------
			     Choke - The Cardigans
-------------------------------------------------------------------------------

Tabbed By : dvanwyk
e-mail: dustinvanwyk@yahoo.com

 Tuning:Drop D
 Intro
G|----------------------------------------------------------------------------------|
D|----------------------------------------------------------------------------------|
A|--44-66-8-------------------------------------------------------------------------|
D|8---------------------------------------------------------------------------------|

 Verse
G|--------------------------------------------------------------------|
D|--------------------------------------------------------------------|
A|8-8-8-8-8-8-8-8--8-8-8-8-8-8-8-8--8-8-8-8-8-8-8-8--8-8-8-8-8-8-8-8--|
D|--------------------------------------------------------------------|

 Intro
 Verse
 Intro

 Chorus(Note:10's not 1's and 0's)
G|---------------------------------------|
D|---------------------------------------|
A|---------------------------------------|
D|33333333-4445555-6667777-555-10101010--|

 Intro
 Verse
 Intro
 Verse(Variation)
G|------------------------------------------------|
D|------------------------------------------------|
A|8-8-8-88-8--8-8-8-88-8--8-8-8-88-8--8-8-8-88-8--|
D|------------------------------------------------|

 Intro

 Chorus
G|---------------------------------------------55--|
D|-------------------------------------------------|
A|-------------------------------------------------|
D|33333333-4445555-6667777-555-10101010------------|

 Bridge
G|-----------------------------------------|
D|----------------------------0------------|
A|8888-7777-6666-5555-3333-111--6666-7777--|
D|-----------------------------------------|

G|-----------------------------------------|
D|-----------------------------0-----------|
A|888--777--666-8-5555-3333-111--666-7777--|
D|---7----7--------------------------------|

 Intro
 Chorus
 Chorus(This is the second time you do the chorus)
G|---------------------------------------------55------|
D|-----------------------------------------------------|
A|-------------------------------------------------33--|
D|33333333-4445555-6667777-555-10101010----------------|

 Bridge
G|-----------------------------------------|
D|----------------------------0------------|
A|8888-7777-6666-5555-3333-111--6666-7777--|
D|-----------------------------------------|

G|-----------------------------------------|
D|-----------------------------0-----------|
A|888--777--666-8-5555-3333-111--666-7777--|
D|---7----7--------------------------------|

G|---------------------------------------------|
D|--------------------10101010-8888------------|
A|8888-7777-6666-5555---------------6666-7777--|
D|---------------------------------------------|

G|---------------------------|
D|---------------------------|
A|---------------------------|
D|3333-2222-1111-0000000000--|

 Intro

| /  slide up
| \  slide down
| h  hammer-on
| p  pull-off
| ~  vibrato
| +  harmonic
| x  Mute note
===============================================================================
Добавлено: 18.07.2012
Другие материалы по этой песне:
  • Аккорды и текст

Страница создана 23.03.2012
http://primanota.ru/cardigans/choke-chords.htm
Привет, Гость.
Предлагаем пройти революционный курс по гитаре.
Подарок от PrimaNota.Ru, забирай!