PrimaNota.ru - самый крупный в мире бесплатный архив песенных текстов, аккордов, табулатур и нот


Cardiacs - Visiting Hours - бас-таба, видео

Регистрация Запомнить меня
Войти через:  Facebook Google Twitter Vk Yandex Mail.ru

Cardiacs - Visiting Hours - бас-таба, видео

Печатать
Просмотров: 37
-------------------------------------------------------------------------------
                             VISITING HOURS - Cardiacs
-------------------------------------------------------------------------------
Tabbed by: SPLAM!
Bassist: Jim Smith
Tuning: EADG

Intro
  1 + 2 + 3 + 4 +  1 + 2 + 3 + 4 +  
G|----------------|----------------|
D|--------.-------|--------5-.-----|
A|.---.---7---7-7-|7-.-------5-5---|
E|5---5-----------|--7-7-----------|
This is played 4 times before the second part (in 9/8):

  1 2 3 4 5 6 7 8 9   
G|---.-----.-----.--|
D|---2-2---2-2---2-2|
A|------------------|
E|000---000---000---| 
Keep repeating until end:
  1 + 2 + 3 + 4 +  
G|----------------|
D|----------------|
A|2-.-----5-.-----|
E|--2-2-----5-5---| 
The play the first part 4 times again.

Interlude
  1 + 2 + 3 + 4 +  
G|.---.-----.-----|
D|5-.-5-.-.-3-5---|
A|--4---4-6-------|
E|----------------|

Verse
  1 + 2 + 3 + 4 +  1 + 2 + 3 + 4 +  
G|----------------|----------------|
D|----------------|333-555-.---.---|
A|----555-----666-|--------5---5---|
E|111-----666-----|----------------|
Slide into the first F from Bb on the first time the 
riff is played after the interlude. Like this:
  4 +  1 + etc.
E|--6\|111-

Pre-Bridge
  1 + 2 + 3 + 4 +  1 + 2 + 3 + 4 +  1 + 2 + 3 + 4 +  1 + 2 + 3 + 4 +  1 + 2 + 3 + 4 +
G|----------------|----------------|----------9---9-|9---9-9---------|------9-let ring|
D|--------------4-|L-4-4---4-4-----|----------------|----a-a---------|----------------|
A|6---6-6---6-6---|------------5---|5-5---5-5-------|--------5---5-5-|L-5-5-----------|
E|----------------|----------------|----------------|----------------|----------------|
                                              Play the Es quieter
Bridge
  1 + 2 + 3 + 4 +  1 + 2 + 3 + 4 +  
G|-----------66---|-----------.---|
D|----7-R------6--|-----------6-67|
A|--77----------4-|R-----.--------|
E|55--------------|------4--------|

Outro
When the synth starts playing, play a held D on the A string for 4 bars.
Then:
  1 + 2 + 3 + 4 +  1 + 2 + 3 + 4 +  
G|----------------|----------------|
D|--------3-2-----|----------------|
A|5--\1-------3---|--------------3-|
E|--------------3-|L---3-5---5-----|

Lyrics and structure:

*Intro*
*Interlude*

*Verse*
Being here alone 
I'm hoping for the time to see my way
Never hearing clearer
Sitting on this bright and sunny day

*Interlude*

*Verse*
Now I feel inclined
To look upon you now I'll never know
Playing on the slide and swings
And around and round we go

*Interlude*

*Pre-Bridge*
Leave me can't you see that I'm weary

*Bridge*
I never had what I desired
And you wouldn't let me play 
With the other kids there outside
They weren't good enough for me
While I sit here and scheme
With rabbit and teddy
Sweet revenge is asking me
To be set free

*Interlude*

*Verse*
I like to see you sometimes 
If only for a moment take your time
I can really see now
And I know what's your's and know what's mine
I see it's hopeless
Now the final stages have begun
I like it when it's raining
Makes it that much wetter than the sun

*Interlude*

*Pre-Bridge*
Turning back the pages of my new diary

*Outro*

Enjoy!

| .  (above note) staccato
| \  slide down
| L  tie
| a  (below note) accent
| R  rest
===============================================================================
Добавлено: 27.05.2016
Другие материалы по этой песне:
  • Аккорды и текст

Страница создана 27.05.2016
http://primanota.ru/cardiacs/visiting-hours-chords.htm
Привет, Гость.
Предлагаем пройти революционный курс по гитаре.
Подарок от PrimaNota.Ru, забирай!