PrimaNota.ru - самый крупный в мире бесплатный архив песенных текстов, аккордов, табулатур и нот


Cardiacs - A Little Man And A House - бас-таба, видео

Регистрация Запомнить меня
Войти через:  Facebook Google Twitter Vk Yandex Mail.ru

Cardiacs - A Little Man And A House - бас-таба, видео

Печатать
Просмотров: 76
Авторы музыки: Tim Smith

-------------------------------------------------------------------------------
                             A LITTLE MAN AND A HOUSE - Cardiacs
-------------------------------------------------------------------------------
Tabbed by: SPLAM!
Bassist: Jim Smith
Tuning: EADG

Intro
  1 2 3 4 5 6
G|------------|
D|------------|
A|2-(let ring)|
E|------------|

Chorus 1
  1 2 3 4 5 6  1 2 3 4 5 6
G|------------|------.-----|
D|.-----.-----|.-----5-----|
A|2-----0-----|5 ----------|x4
E|------------|------------|

Chorus 2
  1 2 3 4 5 6  1 2 3 4 5 6
G|------------|------.-----|
D|.-----.-----|.-----5-----|
A|2-----0-----|5 ----------|x3
E|------------|------------|

  1 2 3 4 5 6  1 2 3 4 5 6  1 2 3 4 5 6
G|------------|------------|------------|
D|.-----.-----|.-----------|------------|
A|2-----0-----|5 ----2-----|L-----------|
E|------------|------------|------------|

Riff
  1 2 3 4 5 6  1 2 3 4 5 6
G|------7-----|--7-R-------|
D|--------7-R-|------5-4---|
A|------------|5---------7-|x2
E|7-7-7-------|------------|

  1 2 3 4 5 6  1 2 3 4 5 6  1 2 3 4 5 6  1 2 3 4 5 6
G|------7-----|--7-R-------|------------|------------|
D|--------7-R-|------5-4---|4-----------|------5-5-5-|
A|------------|5---------7-|------0-----|5-----------|x4
E|7-7-7-------|------------|------------|------------|

Chorus 3/Outro
  1 2 3 4 5 6  1 2 3 4 5 6
G|------------|------------|
D|------------|------------|
A|2-----0-----|5-----------|x12
E|------------|------3-----|

  1 2 3 4 5 6  1 2 3 4 5 6
G|------------|------------|
D|------------|------------|
A|2---0-------|5-----------|
E|------------|------3-----|

  1 2 3 4 5 6  1 2 3 4 5 6
G|------------|------------|
D|------------|------------|
A|2-----0-----|5-----------|x3
E|------------|------3-----|

  1 2 3 4 5 6  1 2 3 4 5 6  1 2 3 4 5 6  1 2 3 4 5 6
G|------------|------------|------------|------------|
D|------------|------------|------------|------------|
A|--2-2---2-2-|--4-4---4-4-|2-2-2-0-0-0-|5-5-5-------|
E|------------|------------|------------|------3-----|

  1 2 3 4 5 6  1 2 3 4 5 6
G|------------|------.-----|
D|.-----.-----|.-----5-----|
A|2-----0-----|5 ----------|x3
E|------------|------------|

  1 2 3 4 5 6  1 2 3 4 5 6  1 2 3 4 5 6
G|------------|------------|------------|
D|.-----.-----|.-----------|------------|
A|2-----0-----|5 ----2-----|L-----------|
E|------------|------------|------------|

| .  (above a note) staccato
| L  tie
| R  rest
===============================================================================
Добавлено: 19.03.2016
Другие материалы по этой песне:
  • Аккорды и текст

Страница создана 19.03.2016
http://primanota.ru/cardiacs/little-man-and-a-house-chords.htm
Привет, Гость.
Предлагаем пройти революционный курс по гитаре.
Подарок от PrimaNota.Ru, забирай!