PrimaNota.ru - самый крупный в мире бесплатный архив песенных текстов, аккордов, табулатур и нот


Cardiacs - In A City Lining - бас-таба, видео

Регистрация Запомнить меня
Войти через:  Facebook Google Twitter Vk Yandex Mail.ru

Cardiacs - In A City Lining - бас-таба, видео

Печатать
Просмотров: 63
Авторы музыки: Tim Smith

-------------------------------------------------------------------------------
                             IN A CITY LINING - Cardiacs                           
-------------------------------------------------------------------------------
Tabbed by: SPLAM!
Bassist: Jim Smith
Tuning: EADG
Main Riff
    1 + 2 + 3 + 4 + 5 + 6 +  1 + 2 + 3 + 4 + 5 + 6 +  1 + 2 + 3 + 4 + 5 + 6 +  
G|-|------------------------|------------------------|------------------------|
D|6|--------3---------------|--------6---------------|--------3---------------|
A|4|.-------------------3---|.-------------------4\--|.-------------------3---|
E|-|1---1-1---------1-1-----|4---4-4-------4-4-4-----|1---1-1---------1-1-----|

    1 + 2 + 3 + 4 + 5 + 6 + 
G|-|------------------------|
D|6|--------6---------------|
A|4|.---------------4\------|
E|-|4---4-4-----------------|

Middle bit
    1 2 3 4 5 6  1 2 3 4 5 6  1 2 3 4 5 6  1 2 3 4 5 6  1 2 3 4 5 6  1 2 3 4 5 6  
G|-|----.---.---|----6---6---|----.---.---|----7---7\--|----.---.---|----6---6---|
D|6|----4---4---|----.---.---|----7---7---|----.-------|----4---4---|----.---.---|
A|8|------------|4-----------|------------|5-----------|------------|4-----------|
E|-|2-----------|------------|5-----------|------------|2-----------|------------|

    1 2 3 4 5 6  1 2 3 4 5 6 
G|-|----.---.---|----9---9\--|
D|6|----7---7--|----.-------|
A|8|------------|7-----------|
E|-|5-----------|------------|

Prechorus
    1 + 2 + 3 + 4 + 5 + 6 +  1 + 2 + 3 + 4 + 5 + 6 +  1 + 2 + 3 + 4 + 5 + 6 +  
G|-|------------------------|------------------------|------------------------|
D|6|------------------------|------------------------|------------------------|
A|4|----5---5---5-----------|----8-7-6---6---6-------|----5-------5---5-------|
E|-|3-3-------------5-5-5---|6-----------------5-6---|3-------3-----------5---|

    1 + 2 + 3 + 4 + 5 + 6 +
G|-|-----------------------|  
D|6|-----------------------|  
A|4|----8-------8---6------| 
E|-|6-------6-----------6--|  

Final bar replacement on repeat:
  1 + 2 + 3 + 4 + 5 + 6 + 
G|------------------------|
D|------------------------|
A|----8-------8---6-6-6-6-|
E|6-------6---------------|

Chorus 1
    1 + 2 + 3 + 4 + 5 + 6 +  1 + 2 + 3 + 4 + 5 + 6 +  1 + 2 + 3 + 4 + 5 + 6 +
G|-|------------------------|------------------------|------------------------|
D|6|------------------------|------------------------|------------------------|
A|4|.---.---.---.---6-6-6-6-|.---.---.---.-----------|.---.---.---.---6-6-6-6-|
E|-|4---4---4---4-----------|4---4---4---4---7-7-7-7-|0---0---0---0-----------|

Final bar replacement on last repeat:
A|----------------6-R-----|
E|0---0---0---0-----------|

Chorus 2 is the same as chorus 1, but the final bar replacement is:
A|.---.---.---.-----------|
E|0---0---0---0---2-R--0--| Let the E ring.

Then the "On the Siegfried line" bit:
    1 + 2 + 3 + 4 + 5 + 6 + 
G|-|9-------8---------------|
D|6|----9-------9-----------|
A|4|------------------------|
E|-|---------------(7)------|
                    The B here sounds like it's played by the organ, but it sounds 
good with the bass too.

Chorus 3 (has the same final bar replacement as Chorus 1)
    1 + 2 + 3 + 4 + 5 + 6 +  1 + 2 + 3 + 4 + 5 + 6 +  1 + 2 + 3 + 4 + 5 + 6 +
G|-|------------------------|------------------------|------------------------|
D|6|------------------------|------------------------|------------------------|
A|4|----------------6-6-6-6-|------------------------|----------------6-6-6-6-|
E|-|4-------4---------------|4-------4-------7-7-7-7-|0-------0---------------|

Instrumental section
    1 + 2 + 3 + 4 + 5 + 6 +  1 + 2 + 3 + 4 + 5 + 6 +  
G|-|------------------------|------------------------|
D|6|------------------------|------------------------|
A|4|----------------6-6-6-6-|----------------6-6-6-6-|
E|-|4-4-4-4-4-4-4-4---------|4-4-4-4-4-4-4-4---------|

    1 + 2 + 3 + 4 + 5 + 6 +  1 + 2 + 3 + 4 + 5 + 6 +
G|-|------------------------|------------------------|
D|6|------------------------|------------------------|
A|4|3-3-3-3-3-3-3-3-6-6-6-6-|3-3-3-3-3-3-3-3-6-6-6-6-|
E|-|------------------------|------------------------|

Keep repeating this until the tempo change. At the change, switch back to the Chorus 
line until the atonal saxophone solo, where this is played:
    1 + 2 + 3 + 4 + 5 + 6 +  1 + 2 + 3 + 4 + 5 + 6 +  1 + 2 + 3 + 4 + 5 + 6 +
G|-|------------------------|------------------------|------------------------|
D|6|------------------------|------------------------|------------------------|
A|4|----------------6-------|------------------------|----------------6-------|
E|-|4-----------------------|4---------------7-------|0-----------------------|

Keep repeating until the end, which is a held G#: E|4----

| .  (above/below note) staccato
| /  slide up
| \  slide down
===============================================================================
Добавлено: 19.03.2016
Другие материалы по этой песне:

Страница создана 30.06.2012
http://primanota.ru/cardiacs/in-a-city-lining-chords.htm
Привет, Гость.
Предлагаем пройти революционный курс по гитаре.
Подарок от PrimaNota.Ru, забирай!