PrimaNota.ru - самый крупный в мире бесплатный архив песенных текстов, аккордов, табулатур и нот


Cardiacs - Ditzy Scene - таба, видео

Регистрация Запомнить меня
Войти через:  Facebook Google Twitter Vk Yandex Mail.ru

Cardiacs - Ditzy Scene - таба, видео

Печатать
Просмотров: 84
Ditzy Scene
Lyrics: http://www.cardiacs.org/lyrics.html
-----
Cardiacs albums are available for purchase from iTunes and at 
www.cardiacs.net
-----

(INTRO)

B  G  G#  D  C#    E  F    A

     A       F                            A          F                A
E |-------|----------------------------|----------|----------------|-------|
B |-------|----------------------------|-----5----|-----------10---|-------|
G |--2----|--------------------0--2----|--6-------|----------------|-------|
D |-------|----------------------------|----------|----------------|-------|
A |-------|----------------------------|----------|----------------|-------|
E |-------|----------------------------|----------|----------------|-------|

     F                                                    A       F
E |----------------------------------------------------|--7----|-------|
B |-----------------------------------------------10---|-------|-------|
G |--------------------------------------------9-------|-------|-------|
D |----------------------------------------------------|-------|-------|
A |----------------------------------------------------|-------|-------|
E |----------------------------------------------------|-------|-------|

     A                            F                C           A
E |--3-----------------5--3----|--------1--0----|----------------------------|
B |--------2-------------------|----------------|--------------3--2----------|
G |----------------------------|-----2----------|----------------------------|
D |----------------------------|----------------|----------------------------|
A |----------------------------|----------------|----------------------------|
E |----------------------------|----------------|----------------------------|

     C#    F          Eb    F#         C   Bb
E |-----1-----3----|--3--------6----|--3-------------|
B |----------------|----------------|----------------|
G |----------------|-----3----------|-----------3----|
D |----------------|----------------|----------------|
A |----------------|----------------|----------------|
E |----------------|----------------|----------------|

(repeat above x2)

     Cm    G#            D             E     D
E |--3--------4----|--------2-------|--4-----2-------|-------|
B |----------------|--4--3----------|----------------|-------|
G |--------5-------|----------------|-----------2----|-------|
D |----------------|----------------|----------------|-------|
A |----------------|----------------|----------------|-------|
E |----------------|----------------|----------------|-------|

A  B  A  B    D    C  B  A  G

(repeat above x2)

     F# A     Eb      C#          E                F  B
E |--6--------3----|--4-----------------0-------|--5--2----------|
B |-----5----------|-----------------0----------|----------------|
G |----------------|--------------1-------------|----------------|
D |----------------|----------------------------|----------------|
A |----------------|----------------------------|----------------|
E |----------------|----------------------------|----------------|

     G  Eb    G                Dm      Bb               B       G        G#
E |--7--------7----|-----------5----|--5--3----------|-------|-----------8----|
B |-----8----------|----------------|----------------|--4----|----------------|
G |----------------|----------------|----------------|-------|--0-------------|
D |----------------|----------------|----------------|-------|----------------|
A |----------------|----------------|----------------|-------|----------------|
E |----------------|----------------|----------------|-------|----------------|

           D           C#                 E  F          A
E |--------------------2--1----|-------|--9--5----|-------|
B |--------3-------------------|-------|----------|-------|
G |----------------------------|-------|----------|--2----|
D |----------------------------|-------|----------|-------|
A |----------------------------|-------|----------|-------|
E |----------------------------|-------|----------|-------|

(VERSE 1)

                    (harmonics)
E |----------------------------|----------------------------|----------------|
B |----------------------------|----------------------------|----------------|
G |--------------------12------|--------2-----2-----2-------|--2--2--2--2----|
D |-----------------x----------|--------2-----2-----2-------|--2--2--2--2----|
A |-----------------x----------|--3h-0--0-----0-----0-------|--0--0--0--0----|
E |-----------------x----------|----------------------------|----------------|
                                              "aa   aa         aaaah"

(repeat last 2 bars x4)

A      C#              E  A  D
Hungry mouths to feed,
G       A
Sick aggregate.
C#    G#  B    F#
Sworn in, scorning,
C#       F#                D
Fast and just wheezing for air.
A   B
And hail.

A      C#         E  A  D
Golden phrasing I,
G          A
Lights and principles.
C# G# B     F#
On-ly squeaking.
C#       F#           D    A
Luck's ferocious left hand,
B
Stalled.
Eb  Bb   C#  G#  E                 A   Eb
Now mult-i-ply a ten-strong baying million,
F   C            D              A
All charred, all hearts full of hurting.
F          Bb C
Testifying in me.

(SOLO - basically the main verse melody with wah pedal and a bit of tremolo picking here and there)

                    (harmonics)
E |----------------------------|----------------------------|----------------|
B |----------------------------|----------------------------|----------------|
G |--------------------12------|--------2-----2-----2-------|--2--2--2--2----|
D |-----------------x----------|--------2-----2-----2-------|--2--2--2--2----|
A |-----------------x----------|--3h-0--0-----0-----0-------|--0--0--0--0----|
E |-----------------x----------|----------------------------|----------------|
                                              "aa   aa         aaaah"

(repeat last 2 bars x4)

E |--9--9----|--9--9----|--9----|-------------|--15----15----12-10---|--9----|
B |----------|----------|-------|--------3----|----------------------|-------|
G |--6--6----|--6--6----|--6----|-----2-------|--12----12----9--7----|--6----|
D |----------|----------|-------|--2----------|----------------------|-------|
A |----------|----------|-------|-------------|----------------------|-------|
E |----------|----------|-------|-------------|----------------------|-------|


E |--9----|--11---|--11---|--14---|--13-16---|--18---|--14-14-14---|--14---|
B |-------|-------|-------|-------|----------|-------|-------------|-------|
G |--6----|--8----|--8----|--11---|--10-13---|--15---|--11-11-11---|--11---|
D |-------|-------|-------|-------|----------|-------|-------------|-------|
A |-------|-------|-------|-------|----------|-------|-------------|-------|
E |-------|-------|-------|-------|----------|-------|-------------|-------|


E |--12---|--10---|--9----|--9----|--11---|-------|-------|-------|--11---|
B |-------|-------|-------|-------|-------|-------|-------|-------|-------|
G |--9----|--7----|--6----|--6----|--8----|-------|-------|-------|--8----|
D |-------|-------|-------|-------|-------|-------|-------|-------|-------|
A |-------|-------|-------|-------|-------|-------|-------|-------|-------|
E |-------|-------|-------|-------|-------|-------|-------|-------|-------|


E |--10-13---|--13----11-9----|--8--4----|--4--6----|--7--12---|--12---|--15---|
B |----------|----------------|----------|----------|----------|-------|-------|
G |--7--10---|--10----8--6----|--5--1----|--1--3----|--4--9----|--9----|--12---|
D |----------|----------------|----------|----------|----------|-------|-------|
A |----------|----------------|----------|----------|----------|-------|-------|
E |----------|----------------|----------|----------|----------|-------|-------|


E |-------|-------|-------|--13---|--12-15---|--14----12-10---|--9--5----|
B |-------|-------|-------|-------|----------|----------------|----------|
G |-------|-------|-------|--10---|--9--12---|--11----9--7----|--6--2----|
D |-------|-------|-------|-------|----------|----------------|----------|
A |-------|-------|-------|-------|----------|----------------|----------|
E |-------|-------|-------|-------|----------|----------------|----------|


E |--5--7----|--8--13---|--13---|--15---|-------|-------|-------|
B |----------|----------|-------|-------|-------|-------|-------|
G |--2--4----|--5--10---|--10---|--12---|-------|-------|-------|
D |----------|----------|-------|-------|-------|-------|-------|
A |----------|----------|-------|-------|-------|-------|-------|
E |----------|----------|-------|-------|-------|-------|-------|

(VERSE 2)

                    (harmonics)
E |----------------------------|----------------------------|----------------|
B |----------------------------|----------------------------|----------------|
G |--------------------12------|--------2-----2-----2-------|--2--2--2--2----|
D |-----------------x----------|--------2-----2-----2-------|--2--2--2--2----|
A |-----------------x----------|--3h-0--0-----0-----0-------|--0--0--0--0----|
E |-----------------x----------|----------------------------|----------------|
                                              "aa   aa         aaaah"

(repeat last 2 bars x4)

A           C#          E  A  D
Thwart this ditzy scene,
G      A
Gilded capital.
C#  G#   B    F#
Hanging, swinging,
C#      F#                  D
Loss of fury, heed, loss of spark.
A      B
Raise! Pull!
Eb  Bb   C#  G#  E                 A   Eb
Now mult-i-ply a ten-strong baying million,
F   C            D              A
All charred, all hearts full of hurting.
F          Bb C
Testifying in me.
Eb     Bb      C#          G#     E                   A Eb
Please calming time and disarm to cease this lynching army,
F   C        D            A
Bad hour, condemned and revolting,
F               Bb   C
Lasting out not shortly.
Eb     Bb       C#       G#      E               A     Eb
All ranting, merciless chanting, smash my legs beneath me,
F     C       D           A
Lives darkly, this is the moment,
F               Bb  C
Honest, this is rid me.
Добавлено: 01.11.2013
Другие материалы по этой песне:
  • Аккорды и текст

Страница создана 01.11.2013
http://primanota.ru/cardiacs/ditzy-scene-chords.htm
Привет, Гость.
Предлагаем пройти революционный курс по гитаре.
Подарок от PrimaNota.Ru, забирай!