PrimaNota.ru - самый крупный в мире бесплатный архив песенных текстов, аккордов, табулатур и нот


Cardenales de Nuevo León - Soy Lo Peor - таба, бас-таба, видео

Регистрация Запомнить меня
Войти через:  Facebook Google Twitter Vk Yandex Mail.ru

Cardenales de Nuevo León - Soy Lo Peor - таба, бас-таба, видео

Печатать
Просмотров: 51
q paso raza, aki sta sta rola q muxos esperaban, c
las
paso con todo he intro y el solo, ni tiene errores
sta limpia, c la kiero dedicar a "IRMA LETICIA"
djdance, espero y t guste solo chequen lso tiempos
y veranq ue sale perfecta.


intro:

PUENTE:  A#    Gm     Cm     F  X 2
A--------------------------------------------------
D--------------------------------------------------
G----------------------------------------12--------
B----13-11--------------------------11-10--11-11-11
e-10------10-10-10-10-10-10-10-10-10---------------


D---------------------------------------------------
G---------------------------------------------------
B-11-11-11-11-11-11-----13--------------------------
e------------------11-10--11-11-11-11-11-11-11-11-11


D--------------------------------------------------
G--------------------------------------------------
B---------------------------------------13-11------
e-13-13-15-13-13-13-13-13-13-13-13-13-10-----10-10-


D---------------------------------------------------
G--------------------------12-----------------------
B---------------------11-10--11-11-11-11-11-11-11-11
e-10-10-10-10-10-10-10------------------------------


D---------------------------------------------------
G---------------------------------------------------
B-11-----13-----------------------------------------
e---11-10--11-11-11-11-11-11-11-11-11-13-15-13-13-13


D--------------------------------------------------
G--------------------------------------------------
B------------------13-13-13-11---------------------
e-11-11-11-10-10-10--------------------------------


A#        Gm              Dm
entre lo peor de lo peor soy lo peor
D#
abrigo todos los defectos
A#
en mis locas aptitudes
Gm              Cm/Cm7
y me fallan las virtudes
 F
por tu amor


A#        Gm              Dm
entre lo peor de lo peor soy lo peor
D#
un individuo insoportable
A#
muchas veces indeseable
Gm            Cm/Cm7
se que soy inaguantable
                    F
por tu amor que tanto amo


coro:

  A#                  Dm
soy lo peor, y no hagas caso
                Gm
de mi loco sentimiento
                     Dm
ni mi mal comportamiento
                  Cm    Cm7/F
ni hagas caso porfavor


 D#
por cada hora de extrañarte
           F
como un necio
         Dm
un beso tuyo para mi
          Gm
no tiene precio y para
Cm/Cm7                 F
amarte como asi necesitarte
       A#
soy el mejor

PUENTE:  A#    Gm     Cm     F  X 2
SOLO:
SE REPITE EL INTRO


SE REPITE TODO OTRA VEZ desde soy lo
peor  y no hagas caso..........


final:

D--------------------------------------------------
G----------------------------------------12--------
B----13-11--------------------------11-10--11-11-11
e-10------10-10-10-10-10-10-10-10-10---------------


D---------------------------------------------------
G---------------------------------------------------
B-11-11-11-11-11-11-----13--------------------------
e------------------11-10--11-11-11-11-11-11-11-11-11


D---------------------------------------
G---------------------------------------
B---------------------------------------
e-13-13-15-13-13-13-13-13-13-13-13-13-10
Добавлено: 14.03.2016
Другие материалы по этой песне:
  • Аккорды и текст

Страница создана 14.02.2016
http://primanota.ru/cardenales-de-nuevo-leon/soy-lo-peor-chords.htm
Привет, Гость.
Предлагаем пройти революционный курс по гитаре.
Подарок от PrimaNota.Ru, забирай!