PrimaNota.ru - самый крупный в мире бесплатный архив песенных текстов, аккордов, табулатур и нот


Cardenales de Nuevo León - Que No Daría - бас-таба, видео

Регистрация Запомнить меня
Войти через:  Facebook Google Twitter Vk Yandex Mail.ru

Cardenales de Nuevo León - Que No Daría - бас-таба, видео

Печатать
Просмотров: 36
un bajeo muy sencillo asi q sera facil sacarlo, solo escuchen la rola
cualquier duda ahi esta mi mail, saludos y luego mando el tab para la
guitarra xq no esta y apenas me di cuenta, saludos


INTRO:
G--------------------------------------------------------------------
D---8-------------------------------------10-------------------------
A--8-8--8--8-5--5--6--6-----5-6--6------10---10-8--8-6-5-------------
E-6---6---6----5--5--6--6-8-----6--6-7-8----------8------8-----------


G--------------------------------------------------------------------
D---8-----------------------------------------10---------------------
A--8---8--8--8-6-5--5--6--6-----5-6--6------10---10-8--8-6-5---------
E-6---6--6--6------5--5--6--6-8-----6--6-7-8----------8------8-------
  Que no daria por compartir......


G--------------------------------------------------------------------
D---8-----------------------------------------10---------------------
A--8---8--8--8-6-5--5--6--6-----5-6--6------10---10-8--8-6-5---------
E-6---6--6--6------5--5--6--6-8-----6--6-7-8----------8------8-------
  Que no daria, yo te lo juro......

coro:


G--------------------------------------10--------
D---8--8-7-5--5--------------------8-10----------
A--8--8------5--5-6--6--6-7-8--8-8---------------
E-6-----------------6--6------8------------------
  te entregaria por completo...........


G-----------------------------8h10--------------
D---8--8-7-5--5----------8-10---------8---------
A--8--8------5--8-6--8--8------------8--8-------
E-6-----------------6--8------------6-----------
   te dormiria entre latidos........


puente

G-----------------------------------------------------------
D---8--8------------------------------------10---------------
A--8--8--8--8-5--5--6--6-----5-6--6-------10---10-9-8--8-----
E-6--------6----5--5--6--6-8-----6--6-7-8-------------8--8---


se repite todo, desde

que no daria..........


final:

G-----------------------------8h10----------------
D---8--8-7-5--5----------8-10---------8-----8-----
A--8--8------5--8-6--8--8------------8--8--8--8---
E-6-----------------6--8------------6-----6----6--
Добавлено: 14.02.2016
Другие материалы по этой песне:
  • Аккорды и текст

Страница создана 14.02.2016
http://primanota.ru/cardenales-de-nuevo-leon/que-no-daria-chords.htm
Привет, Гость.
Предлагаем пройти революционный курс по гитаре.
Подарок от PrimaNota.Ru, забирай!