PrimaNota.ru - самый крупный в мире бесплатный архив песенных текстов, аккордов, табулатур и нот


Cardenales de Nuevo León - Necesito Decírtelo - таба, видео

Регистрация Запомнить меня
Войти через:  Facebook Google Twitter Vk Yandex Mail.ru

Cardenales de Nuevo León - Necesito Decírtelo - таба, видео

Печатать
Просмотров: 66
Уроки эстрадного вокала в Санкт-Петербурге
Q ONDASH RAZA aki les djo sto q sta chido, muxos la pedoian
y c las mando sin erros completita, c la ddiko a
"ITZEL GUADALUPE", necesito decirtelo, es preciso que
entiendash que t stoy necesitando.

t xtraño muxo


INTRO:  D#    Gm    G#     A#  X DOS

D--------------------------------------------------------
G-13-------------------13------------------13------------
B---10-11-13------13-11--10-11-13--------11--10-11-13----
e------------10-11---------------10-13-10------------10--

D--------------------------------------------------------
G----------------------------13--------------------------
B------13-----13-----13-11-10----------------------------
e-11-10--11-10--11-10------------------------------------


              D#
de otra forma no se
             Gm
puede comprender
             G#
de ti estoy completamente
     A#
enamorado


       D#
necesario  ya era
           Gm
hacertelo saber
         G#           A#
hacerte ver que yo te amo


     D#
que ne mis sueños
                Gm
tu no dejas de existir
         G#
que me tienes
             A#
totalmente cautivado

     G#                 Gm
con tu forma demirar de sonreir
     G#                     A#
la voluntad sencillamente me has robado


CORO:

       D#
necesito decirtelo
              Gm
que tu sepas que te amo
               G#
es preciso que entiendas
               A#
que te estoy necesitando

 D#
que ya nada me importa
              Gm
solo estar a tu lado
               G#
que mi vida ya es tuya
                   A#
y tu ni cuenta te habias dado


              G#
dimelo con tus ojos
                 D#
que es mas que suficiente
               A#
que pára ti ya no
            D#
te soy indiferente


PUENTE: D#    Gm    G#     A#

D--------------------------------------------------------
G-13-------------------13------------------13------------
B---10-11-13------13-11--10-11-13--------11--10-11-13----
e------------10-11---------------10-13-10------------10--

D--------------------------------------------------------
G----------------------------13--------------------------
B------13-----13-----13-11-10----------------------------
e-11-10--11-10--11-10------------------------------------

c repite todo


final:


D--------------------------------------------------------
G-13-------------------13------------------13------------
B---10-11-13------13-11--10-11-13--------11--10-11-13----
e------------10-11---------------10-13-10------------10--

D--------------------------------------------------------
G----------------------------13-----11-13----------------
B------13-----13-----13-11-10--13-11---------------------
e-11-10--11-10--11-10------------------------------------
Добавлено: 26.05.2016
Другие материалы по этой песне:
  • Аккорды и текст

Страница создана 26.05.2016
http://primanota.ru/cardenales-de-nuevo-leon/necesito-decirtelo-chords.htm
Привет, Гость.
Предлагаем пройти революционный курс по гитаре.
Подарок от PrimaNota.Ru, забирай!