PrimaNota.ru - самый крупный в мире бесплатный архив песенных текстов, аккордов, табулатур и нот


Carbon Leaf - Nowadays - текст песни, таба, видео

Регистрация Запомнить меня
Войти через:  Facebook Google Twitter Vk Yandex Mail.ru

Carbon Leaf - Nowadays - текст песни, таба, видео

Печатать
Просмотров: 194
Tuning: Standard

      h - hammer on 
      p - pull off 
      b - bend string up
     pm - palm muting
      / - slide up
      \ - slide down

Intro and Verse:

   G                                C                 F  F# G
e-------------------------------------------------------------|
B-------------------------------------------------------------|
G------------0---------4p2p0---0----5-5-----------------------|
D-------0-0-----0-0----------4---0--5-5-------5-------3--4--5-|
A-----------------------------------3-3--3h5-----5----3--4--5-|
E--2h3------------------------------------------------1--2--3-|
 pm________|


Chorus:

B        E    A                      G
Na-na-now, we live it up lonely, but anyhow

B                E     A         G
I'll not complain, nowadays, but anyways

B        E    A                      G
Na-na-Now, we live it up lonely, high on the bow

B         E         A
Mice in a maze, nowadays


Bass, but can be played on guitar:

e------------------------|
B------------------------|
G------------------------|
D------------------------|
A------------------------|
E--5-2-3-5-2-3-5-2-3-5-3-|


Guitar Part Before Last Verse

e------------------------------------------------|
B------------------------------------------------|
G--------0----------------------2------4p2p0---0-|
D--0h2h4---0-2--0-----0---0h2h4---0-2--------4---|
A-----------------0h2----------------------------|
E------------------------------------------------|
Добавлено: 03.04.2012
Другие материалы по этой песне:
  • Аккорды и текст

Страница создана 03.04.2012
http://primanota.ru/carbon-leaf/nowadays-chords.htm
Привет, Гость.
Предлагаем пройти революционный курс по гитаре.
Подарок от PrimaNota.Ru, забирай!