PrimaNota.ru - самый крупный в мире бесплатный архив песенных текстов, аккордов, табулатур и нот


Carbohydrom - Antimatter Ikaruga First Stage - таба, видео

Регистрация Запомнить меня
Войти через:  Facebook Google Twitter Vk Yandex Mail.ru

Carbohydrom - Antimatter Ikaruga First Stage - таба, видео

Печатать
Просмотров: 100
AntiMatter (Ikaruga's First Stage)-Carbohydrom
Tabbed By: Bryan “Big T” Taylor
Email: i_saw_your_mom@yahoo.com
Tuning: Standard
Carbohydrom's Website: http://www.Carbohydrom.net


First 20 seconds or so are the old 8-bitish sounds

0:24 “Introduction Chords”
E ---------------------|
B ---------------------|
G 14-14-14---14-14-14--|
D 14-14-14---14-14-14--|
A 12-12-12---12-12-12--|
E ---------------------|


0:30 “Main Riff 1”
E ------------------------------------|
B ------------------------------------|
G ------------------------------------|
D -/14-12--12/14-12---9-10~--9h10p9---|
A -------12--------12--------------12-|
E ------------------------------------|


0:40 “Main Riff 2”
E -------------------------------------------|
B -------------------------------------------|
G ---------10-12~-10-------------------------|
D 10-12-14------------14-12---------------14-|
A ---------------------------10-14-14--12----|
E -------------------------------------------|

E ------------------------------------------|
B ------------------------------------------|
G ------------------------------------------|
D 14-12-10----------------------------------|
A ---------14-10-14-14-12-12~---------------|
E ------------------------------------------|


0:51 “Main Riff 3”
E ------------------------------------------|
B ------------------------------------------|
G ---------12-14~-12------------------------|
D 10-12-14----------15-14-------------------|
A ------------------------12-12-------------|
E ------------------------------------------|

E ------------------------------------------|
B ------------------14----------------------|
G --------12-14~-16----16-14-16-14-12-------|
D 10-12-14----------------------------14-12-|11
A ------------------------------------------|
E ------------------------------------------|


1:03 “Crazy Riff”
E -------------------------------------------|
B ------------------------14-----------------|
G ------------14-16----16----16p14h16~-16-14-|
D 11-12-13-14-------14-----------------------|
A -------------------------------------------|
E -------------------------------------------|

E -----------------------------------------|
B -----------------------------------------|
G ------13-14p13h14----------14-13-14/16~~-|
D 14-16-------------16-14-16---------------|
A -----------------------------------------|
E -----------------------------------------|


1:15 “Main Riff 1” Second Time (No Changes)
E ------------------------------------|
B ------------------------------------|
G ------------------------------------|
D -/14-12--12/14-12---9-10~--9/10/9---|
A -------12--------12--------------12-|
E ------------------------------------|


1:25 “Main Riff 2” Second Time (No Changes)
E -------------------------------------------|
B -------------------------------------------|
G ---------10-12~-10-------------------------|
D 10-12-14------------14-12---------------14-|
A ---------------------------10-14-14--12----|
E -------------------------------------------|

E ------------------------------------------|
B ------------------------------------------|
G ------------------------------------------|
D 14-12-10----------------------------------|
A ---------14-10-14-14-12-12~---------------|
E ------------------------------------------|


1:37 “Introduction Chords” (No Changes)
E ---------------------|
B ---------------------|
G 14-14-14---14-14-14--|
D 14-14-14---14-14-14--|
A 12-12-12---12-12-12--|
E ---------------------|


1:43 “Outro Riff”
I'm still trying to figure it out; I know the intro chord is:
D -7-
A -7-
E -5- There are also some palm mutes in between the chords, any help would be great, 
ideas in comment area.


1:54 “End Riff”
E ---------------------|
B ---------------------|
G ---------------------|
D -------------------7-|
A ---------7-5-------7-|
E -5-5-7-8-----5~~~--5-|
Добавлено: 19.05.2012
Вам также может быть интересно:
Другие материалы по этой песне:
  • Аккорды и текст

Страница создана 19.05.2012
http://primanota.ru/carbohydrom/antimatter-ikaruga-first-stage-chords.htm
Привет, Гость.
Предлагаем пройти революционный курс по гитаре.
Подарок от PrimaNota.Ru, забирай!