PrimaNota.ru - самый крупный в мире бесплатный архив песенных текстов, аккордов, табулатур и нот


Caravan - Mirror For The Day - текст песни, таба, видео

Регистрация Запомнить меня
Войти через:  Facebook Google Twitter Vk Yandex Mail.ru

Caravan - Mirror For The Day - текст песни, таба, видео

Печатать
Просмотров: 123
Tablature for:
"Mirror for the Day", Caravan
Songs for Oblivion Fishermen, 1974
Aristocrat Music
 
Transcribed by:
Will Hartley
jinjonator2000@yahoo.com
This tab probably is not right, but this is how I've always played it.
I just wanted to get a song by Caravan, other than "Grey and Pink", onto
.  Caravan, and prog-rockers in general, don't have the
representation
they deserve anywhere on the internet.
Feel free to make any corrections.
This is all my own work.
 
 
Intro
    Gmin    Amin\Gmin      D5       D#
e|----------------------------------3--------|
B|---3--------5-\-3--------3--------4--------|
G|---3--------5-\-3--------2--------3--------|
D|---0--------0-\-0--------0--------1--------|
A|---1--------3-\-1--------------------------|
E|---3--------5-\-3--------------------------|
  ...Morning...    ...guiding me...
 
   G        C      Gmaj7      C       Bmin     Am
e|--/7--------8--------7--------8--------2--------0--------|
B|--/8--------8--------7--------8--------3--------1--------|
G|--/7--------9--------7--------5--------4--------2--------|
D|--/5--------10-------5--------5--------4--------2--------|
A|---------------------5-----------------2--------0--------|
E|---------------------------------------------------------|
  ...Here...        ...somewhere...   ...mind games are over.
 
Pre-verse
This probably isn't how Caravan played this, but this sounds right.
     G  Am Bmin   C    D   Emin  D     G    Am
e|----------------------------------------------------|
B|---0----1----3----5----7----8----10----12----14-----|
G|---0----2----4----5----7----9----11----12----14-----|
D|---0----2----4----5----7----9----12----12----14-----|
A|---2----0----2----3----5----7----9-----10----12-----|
E|----------------------------------------------------|
 
Verse
                 G    Bmin  Amin           Bm C
e|---------------3-----------------------------------------|
B|---------------0-----3-----1--------------3---5----------|
G|---2h4--0------0-----4-----2---2h4--0-----4---5----------|
D|---2h4--0------0-----4-----2---2h4--0-----4---5----------|
A|---------------2-----2-----0--------------2---3----------|
E|---------------3-----------------------------------------|
 
Pre-chorus
    Amin     Bmin      C        D
e|---0-----------------------------------|
B|---1--------3--------5--------7--------|
G|---2--------4--------5--------7--------|
D|---2--------4--------5--------7--------|
A|---0--------2--------3--------5--------|
E|---------------------------------------|
  ...you're just a smile...

Chorus
The chorus is the same as the verse without the trills.
            G          G          Amin      C
e|---------------3----------0-----|-----0--------0---|
B|---------------0----------1-----|-----1--------1---|
G|---------------0----------0-----|-----2--------0---|
D|---------------0----------2-----|-----2--------2---|
A|---------------2---0--2---3-----|-----0--------3---|
E|---------------3----------------|------------------|
  ...deep in my heart..              ...all you got to do...

-----------------------------------------------------------
Last update:
8/14/2003 - Will Hartley - jinjonator2000@yahoo.com
     
Добавлено: 27.06.2013
Другие материалы по этой песне:
  • Аккорды и текст

Страница создана 27.06.2013
http://primanota.ru/caravan/mirror-for-the-day-chords.htm
Привет, Гость.
Предлагаем пройти революционный курс по гитаре.
Подарок от PrimaNota.Ru, забирай!